Guitar Tabs, Chords and Lyrics
Server problems seems to be fixed. Chordie has been experiencing problems with songs disappearing. These issues now seems to be fixed, but still verifying the fix. If you find anything strange, please email admin@chordie.com.


All Revved Up With No Place to Go  Meat Loaf

Words And Music By:
Jim Steinman
Tabbed By:
Caleb Pedercini
The timing may be off in some places but for the most part it is ok.
Guitar 1. Guitar Aranged For Sax.
Riff A Play 2x
 
 |--9-10p9-12-10-9-10p9------------9-10p9-12-10-9-10p9---------------|
 |----------------------10----10-----------------------10----10-12---|
 |-------------------------11-----------------------------11---------|
 |-------------------------------------------------------------------|
 |-------------------------------------------------------------------|
 |-------------------------------------------------------------------|

Guitar 2. played w/Riff A 2x
[A] [G] [A] [G]  
 
 |-------------------------------------------------------------------|
 |-------------------------------------------------------------------|
 |-------------------------------------------------------------------|
 |-7--7--7-7-7-7--5--5--5-5-5-5----7--7--7-7-7-7--5--5--5-5-5-5------|
 |-7--7--7-7-7-7--5--5--5-5-5-5----7--7--7-7-7-7--5--5--5-5-5-5------|
 |-5?-5--5-5-5-5--3?-3--3-3-3-3----5--5--5-5-5-5--3--3--3-3-3-3------|

Verse:
Well I was nothing... boy... new...
Guitar 1.
 
 |-------------------------------------------------------------------|
 |-------------------------------------------------------------------|
 |-----------------------------------------7-6-----------------------|
 |---------------------------------------------7---------------------|
 |-------------------------------------------------------------------|
 |-------------------------------------------------------------------|

Guitar 2.
 
 |-------------------------------------------------------------------|
 |-------------------------------------------------------------------|
 |--------x-x-6-------x-x-4----x-x-6--------x-x-6--------------------|
 |--------x-x-7-------x-x-5----x-x-7--------x-x-7--------------------|
 |--------x-x-7-------x-x-5----x-x-7--------x-x-7--------------------|
 |--------x-x-5-------x-x-3----x-x-5--------x-x-5--------------------|

Nothing...
All Guitars
 
 |-------------------------------------------------------------------|
 |-------------------------------------------------------------------|
 |--------x-x-6-------x-x-4--------9-9-9-9-9-9-9-9-9-9-9-9-9-9-9-9---|
 |--------x-x-7-------x-x-5--------9-9-9-9-9-9-9-9-9-9-9-9-9-9-9-9---|
 |--------x-x-7-------x-x-5--------7-7-7-7-7-7-7-7-7-7-7-7-7-7-7-7---|
 |--------x-x-5-------x-x-3------------------------------------------|

Pre-Chorus
I was a varsity tackle ran a hell of a block
All Guitars
 
 |-------------------------------------------------------------------|
 |-------------------------------------------------------------------|
 |-------7--7--7-7-7-7--7--7--7-7-7-7--------------------------------|
 |-------7--7--7-7-7-7--7--7--7-7-7-7--------------------------------|
 |-------5--5--5-5-5-5--5--5--5-5-5-5--------------------------------|
 |-------------------------------------------------------------------|

when I play my guitar rock but
 
 |-------------------------------------------------------------------|
 |-------------------------------------------------------------------|
 |-------9--9--9-9-9-9--9--9--9-9-9-9--------------------------------|
 |-------9--9--9-9-9-9--9--9--9-9-9-9--------------------------------|
 |-------7--7--7-7-7-7--7--7--7-7-7-7--------------------------------|
 |-------------------------------------------------------------------|

Chorus:
Every Saturday night, I felt the fever grow
 
 |-------------------------------------------------------------------|
 |-------------------------------------------------------------------|
 |-------------------6--6--6-6-6-6--7--7--7-7-7-7--------------------|
 |-7-----------------6--6--6-6-6-6--7--7--7-7-7-7---7----------------|
 |-7---7--7-7-7------4?-4--4-4-4-4--5?-5-?5-5-5-5---7----------------|
 |-5---5--5-5-5-------------------------------------5----------------|

Do ya know what it?s like?
Guitar 1.
 
 |-------------------------------------------------------------------|
 |-------------------------------------------------------------------|
 |---6--7--6------4---6----------------------------------------------|
 |---6--7--6---------------------------------------------------------|
 |---4--5--4---------------------------------------------------------|
 |-------------------------------------------------------------------|

Guitar 2.
 
 |-------------------------------------------------------------------|
 |-------------------------------------------------------------------|
 |---6--7--6------4---6----------------------------------------------|
 |---6--7--6------4---6----------------------------------------------|
 |---4--5--4---------------------------------------------------------|
 |-------------------------------------------------------------------|

All revved up with no place to go.
Guitar 1.
 
 |-------------------------------------------------------------------|
 |-------------------------------------------------------------------|
 |---6---6----7---7---6---4------------------------------------------|
 |-----------------------------6---7---------------------------------|
 |-------------------------------------------------------------------|
 |-------------------------------------------------------------------|

Guitar 2.
 
 |-------------------------------------------------------------------|
 |-------------------------------------------------------------------|
 |----6--6----7---7---6--------6-------------------------------------|
 |----6--6----7---7---6----4---6---7---------------------------------|
 |----4--4----5---5---4----4---4---7---------------------------------|
 |---------------------------------5---------------------------------|

Repeat Chorus
Riff A 1x
Verse
Chorus
Bridge:
Oh baby
 
 |-----------------------------------------------------|
 |-----------------------------------------------------|
 |----------------------------------4-4--5-5--6-6--7---|
 |--7---7-7---7-7---7--7-7----------4-4--5-5--6-6--7---|
 |--7---7-7---7-7---7--7-7----------2?2--3-3--4-4--5---|
 |--5---5-5---5-5---5--5-5-----------------------------|

I?m a hunter in the dark... I?ve been
 
 |-----------------------------------------------|
 |-----------------------------------------------|
 |--7-7---7-7---7-7------------------------------|
 |--7-7---7-7---7-7----7--7-7--7-7--7-7----------|
 |--5-5---5-5---5-5----7--7-7--7-7--7-7----------|
 |---------------------5--5-5--5-5--5-5----------|

stalking... down.
 
 |-------------------------------------------|
 |-------------------------------------------|
 |--7--7-7--7-7--7---------------------------|
 |--7--7-7--7-7--7-----7---------------------|
 |--5--5-5--5-5--5-----7-------------5-7-----|
 |---------------------5------5--5-7---------|

Cruising... main drag all night long.
 
 |---------------------------------------------------|
 |---------------------------------------------------|
 |--7--7-7--7-7--7-----------------------------------|
 |--7--7-7--7-7--7---7--7-7--7-7---------------------|
 |--5--5-5--5-5--5---7--7-7--7-7---------------------|
 |-------------------5--5-5--5-5---------------------|

We could...
 
 |--------------------------------------------------------|
 |--------------------------------------------------------|
 |--5-------5-------5--------5----------------------------|
 |--5--5----5--5----5--5-----5----------------------------|
 |--3--5----3--5----3--5-----3----------------------------|
 |-----3-------3-------3----------------------------------|

standing... world... instead of
 
 |------------------------------------------------------------|
 |------------------------------------------------------------|
 |--7-7--7-7--7-7--7------------------------------------------|
 |--7-7--7-7--7-7--7--7---7-7--7-7--7-7--7--------------------|
 |--5-5--5-5--5-5--5--7---7-7--7-7--7-7--7--------------------|
 |--------------------5---5-5--5-5--5-5--5--------------------|

sinking... mud...
 
 |------------------------------------------------------------|
 |------------------------------------------------------------|
 |-7--7-7--7-7--7---------------------------------------------|
 |-7--7-7--7-7--7---7--7-7--7-7--7-7--------------------------|
 |-5--5-5--5-5--5---7--7-7--7-7--7-7--------------------------|
 |------------------5--5-5--5-5--5-5--------------------------|

You and me...
 
 |------------------------------------------------------------|
 |------------------------------------------------------------|
 |-5--5-------5------5-----5----------------------------------|
 |-5--5---5---5--5---5--5--5----------------------------------|
 |-3--3---5---3--5---3--5--3----------------------------------|
 |--------3------3------3-------------------------------------|

You and me...
 
 |------------------------------------------------------------|
 |------------------------------------------------------------|
 |--7--7--9---7--9---7--9--9----------------------------------|
 |--7--7--9---7--9---7--9--9----------------------------------|
 |--7--7--7---7--7---7--7--7----------------------------------|
 |------------------------------------------------------------|

Someone... draw first. Draw first
 
 |------------------------------------------------------------|
 |------------------------------------------------------------|
 |--7--7--7--7------9---9-------------------7-----9-----------|
 |--7--7--7--7------9---9-------------------7-----9-----------|
 |--7--7--7--7------7---7-------------------7-----7-----------|
 |------------------------------------------------------------|

Someones... draw blood
 
 |-------------------------------------------------------------|
 |-------------------------------------------------------------|
 |--7---7---7---7---9---9---9---9------------------------------|
 |--7---7---7---7---9---9---9---9----5---5---5---5---5---5---5-|
 |--7---7---7---7---7---7---7---7----5---5---5---5---5---5---5-|
 |-----------------------------------3---3---3---3---3---3---3-|

Someones got to draw first blood.
 
 |-------------------------------------------------------------|
 |-------------------------------------------------------------|
 |----------------------------7----7--7--7--7--7--7--7---------|
 |--5--5--5--5--5--5--5--5----7----7--7--7--7--7--7--7---------|
 |--5--5--5--5--5--5--5?-5----5----5--5--5--5--5--5--5---------|
 |--3--3--3--3--3--3--3--3-------------------------------------|

Oh I got to draw first blood.
 
 |-------------------------------------------------------------------|
 |-------------------------------------------------------------------|
 |-------------------------------7---7--7--7--7--7--7--7-------------|
 |--7---7--7--7--7--7--7---------7---7--7--7--7--7--7--7-------------|
 |--7---7--7--7--7--7--7---------5---5--5--5--5--5--5--5-------------|
 |--5---5--5--5--5--5--5---------------------------------------------|

Oh I got to draw first blood.
 
 |-------------------------------------------------------------------|
 |-------------------------------------------------------------------|
 |-------------------------------7---7--7--7--7--7--7--7-------------|
 |--7---7--7--7--7--7--7---------7---7--7--7--7--7--7--7-------------|
 |--7---7--7--7--7--7--7---------5---5--5--5--5--5--5--5-------------|
 |--5---5--5--5--5--5--5---------------------------------------------|

Sax Solo. Play this under the solo
 
 |--------------------------------|
 |--------------------------------|
 |-5--5-------5------5-----5------|
 |-5--5---5---5--5---5--5--5------|
 |-3--3---5---3--5---3--5--3------|
 |--------3------3------3---------|

Guitar 1.
 
 |-------------------------------------------------------------------|
 |-------------------------------------------------------------------|
 |-----------------------------------------7-6-----------------------|
 |---------------------------------------------7---------------------|
 |-------------------------------------------------------------------|
 |-------------------------------------------------------------------|

Guitar 2.
 
 |-------------------------------------------------------------------|
 |-------------------------------------------------------------------|
 |--------x-x-6-------x-x-4----x-x-6--------x-x-6--------------------|
 |--------x-x-7-------x-x-5----x-x-7--------x-x-7--------------------|
 |--------x-x-7-------x-x-5----x-x-7--------x-x-7--------------------|
 |--------x-x-5-------x-x-3----x-x-5--------x-x-5--------------------|

All Guitars
 
 |-------------------------------------------------------------------|
 |-------------------------------------------------------------------|
 |--------x-x-6-------x-x-4--------9-9-9-9-9-9-9-9-9-9-9-9-9-9-9-9---|
 |--------x-x-7-------x-x-5--------9-9-9-9-9-9-9-9-9-9-9-9-9-9-9-9---|
 |--------x-x-7-------x-x-5--------7-7-7-7-7-7-7-7-7-7-7-7-7-7-7-7---|
 |--------x-x-5-------x-x-3------------------------------------------|

End Sax Solo.
Pre Chorus
Chorus
Now for the climactic ending.
Timing is key here.
 
 |------------------------------------------------|
 |------------------------------------------------|
 |------------------------------------------------|
 |----------------------------7-------------------|
 |--7-7-7-7-7-7-7-7-7-7-7--5--5-------------------|
 |--5-5-5-5-5-5-5-5-5-5-5--3----------------------|

Play 4x
 
 |------------------------------------------------|
 |------------------------------------------------|
 |----------------------------7-------------------|
 |--7-7-7-7-7-7-7-7-7-7-7--5--7-------------------|
 |--7-7-7-7-7-7-7-7-7-7-7--5--5-------------------|
 |--5-5-5-5-5-5-5-5-5-5-5--3----------------------|

Play 2x
 
 |--------------------------------------------------------------|
 |--------------------------------------------------------------|
 |-----------------------------7----7-7-7-7--9--9---------------|
 |---7-7-7-7-7-7-7-7-7-7-7--5--7----7-7-7-7--9--9--7--7-7-------|
 |---7-7-7-7-7-7-7-7-7-7-7--5--5----5-5-5-5--7--7--7--7-7-------|
 |---5-5-5-5-5-5-5-5-5-5-5--3----------------------5--5-5-------|
 |-------------------------------------------------------------------|
 |-------------------------------------------------------------------|
 |--7--7-7--7-7-7--7--7-7--7-7-7--9--9-9--9-9-9--9--9-9--9-9-9-------|
 |--7--7-7--7-7-7--7--7-7--7-7-7--9--9-9--9-9-9--9--9-9--9-9-9-------|
 |--5--5-5--5-5-5--5--5-5--5-5-5--7--7-7--7-7-7--7--7-7--7-7-7-------|
 |-------------------------------------------------------------------|

All revved up...
 
 |-------------------------------------------------------------------|
 |-------------------------------------------------------------------|
 |----------------------7--------------------------------------------|
 |--7--7-7--7-7-7--5-5--7---------7----------------------------------|
 |--7--7-7--7-7-7--5-5--5---------7----------------------------------|
 |--5--5-5--5-5-5--3-3------------5----------------------------------|

All revved up with no place to go!
 
 |-------------------------------------------------------------------|
 |-------------------------------------------------------------------|
 |--------------------------------7----------------------------------|
 |--7---7-----7---7----5--5----5--7----------------------------------|
 |--7---7-----7---7----5?-5----5--5----------------------------------|
 |--5---5-----5---5----3--3----3-------------------------------------|

Play 3x
All revved up with no place to go!
 
 |-------------------------------------------------------------------|
 |-------------------------------------------------------------------|
 |-------------------------------------------------------------------|
 |-------------------------------------7-----------------------------|
 |-------------------------------------7-----------------------------|
 |-------------------------------------5-----------------------------|

Enjoy.
I?m currently working on the rest of the album. To quote Axl Rose,
?soon isn?t the word,? but it is on its way.

Important: The song above is NOT stored on the Chordie server. The original song is hosted at www.guitaretab.com. Chordie works as a search engine and provides on-the-fly formatting. Chordie does not index songs against artists'/composers' will. To remove this song please click here.

Text color:
Chord color:
Chord grids: 
Font size:    
Page size: 

A G
Rate #1 of 2 versions

Login - add to songbook

SHARE PAGE  




You need to log in to post comments