Guitar Tabs, Chords and Lyrics
Major upgrade!! After one year development the new version of Chordie is now online! Please give feedback.


Standing on the Outside  Meat Loaf

* Meat Loaf : Standing on the outside (Lang, Page, George)
 
 -----------------------------------

[Em] [C] [D] [Am]  
 
 E |--0-----3-----3----0--0--3--0--3----2-----2-----2--------0----------|
 B |--0--0-----0-------1----------------3----------------------3-1---0--|
 G |--0----------------0----------------2--2-----2-----------------2----|
 D |--2----------------2----------------0-------------------------------|
 A |--2----------------3------------------------------------------------|
 E |--0-----------------------------------------------------------------|

[Em] I ain't l[C]ivin' here no[D] more[Am]
[Em] I ain't e[C]ven keepin' s[D]core[Am]
[Em] It's too l[C]ate to change, it's o[D]ver[Am]
[Em] I'm drowned in a s[C]ea of te[D]ars[Am]
[C] Nothin' I[D] can say to y[Em]ou, m[C]akes any difference
There ain't n[D]othin' I can d[Em]o
[(Em)]  
 
 E |----------10-----------|
 B |-------10-----13-12----|
 G |-----------------------|
 D |-----------------------|
 A |-----------------------|
 E |-----------------------|

N[C]one of it makin' s[(/)]ense
[Am] (Standing on the outside)
I'm lookin' in at [Em]you (Standing on the outside)
[Am] (Standing on the outside)
I'm running out of [Em]time (Standing on the outside)
Ooh! [Bm]
[Em] I'm so t[C]ired of bein' alo[D]ne[Am]
[Em] A w[C]orld that feels so c[D]old[Am]
[Em] There's got to be a l[C]ight that I can f[D]ind[Am]
[Em] There's got to be a s[C]oul somewhere that s[D]hines for m[Am]e
[C] Now I don't want to l[D]ive without love any m[Em]ore
J[C]ust wanna live my life
Love's gonna o[D]pen up the d[Em]oor
S[C]how me it's light a[(/)]gain
[Am] (Standing on the outside)
I'm lookin' in at yo[Em]u (Standing on the outside)
[Am] (Standing on the outside)
I'm running out of ti[Em]me (Standing on the outside)
(Instrumental:)
[G] [Am] [F#m] [D]  
 
 E |--------------------------------------------|
 B |--------------------------------------------|
 G |-------2-4--5-4-2---------------------------|
 D |-----5------------0-------------------------|
 A |--------------------------------------------|
 E |--------------------------------------------|

[Em] [Bm] [F#m] [D] 
[Em] [Bm]  
[C] Nothin' I[D] can say to y[Em]ou, m[C]akes any difference
There ain't n[D]othin' I can d[Em]o
N[C]one of it makin' s[(/)]ense
[Am] (Standing on the outside)
Lookin' in at y[Em]ou (Standing on the outside) Ooh!
[Am] (Standing on the outside) What can I do?
[Em] (Standing on the outside)
[Am] (Standing on the outside)
I'm lookin' in at yo[Em]u (Standing on the outside)
[Am] (Standing on the outside)
I'm running out of ti[Em]me (Standing on the outside)
*******************************************************************************
Keep rockin !
Max ( Max_Guitarplayer@hotmail.com )
*******************************************************************************

Important: The song above is NOT stored on the Chordie server. The original song is hosted at www.guitaretab.com. Chordie works as a search engine and provides on-the-fly formatting. Chordie does not index songs against artists'/composers' will. To remove this song please click here.

Text color:
Chord color:
Chord grids: 
Font size:    
Page size: 

Am Bm C D Em F#m G
Rate #1 of 2 versions

Login - add to songbook

SHARE PAGE  




You need to log in to post comments