Guitar Tabs, Chords and Lyrics
Major upgrade!! After one year development the new version of Chordie is now online! Please give feedback.


Almost Honest  Megadeth

As recorded by Megadeth
(From the 1997 Album CRYPTIC WRITINGS)
Transcribed by /\X/\M
Words and Music by Dave Mustaine & Marty Friedman
[E5]0 2 x x x x
E5VII
x 7 9 9 x x
[B/D#]x 6 9 x x x
[D5]x 5 7 7 x x
[A/C#]x 4 7 x x x
[C5]x 3 5 5 x x
Gtr I (E A D G B E) - 'Untitled'
Gtr II (E A D G B E) - 'Untitled'
Gtr III (E A D G B E) - 'Untitled'
Gtr IV (E A D G B E) - 'Untitled'
Intro
Moderate Rock Q=140 1.,2.,3.
[4/4] Gtr I
H Q E E +E E E E E E E E +E E Q Q E E
 
 |-------------||--------------------|------------------||
 |-------------||o-------------------|-----------------o||
 |-------------||--------------------|------------------||
 |-------------||--------2-------0-2-|-(2)--------------||
 |-------------||o-----2-------2---0-|-(0)-2-----------o||
 |-----------0-||--(0)-----2-3-------|-----0---------0--||

4.
E E Q Q E E E E E E E Q E
 
 |-----------------|-------------------||
 |-----------------|-------------------||
 |-----------------|-------7---9\------||
 |-(2)-----------2-|-------7---9\------||
 |-(0)-2---------0-|---2---5---7\--2---||
 |-----0-----------|---0-----------0---||

Verse
+W +H.. E 4x +E E E E E E E E +E E Q Q E E
 
 ||-------------|---------------||-------------------|------------------|
 ||o------------|--------------o||-------------------|------------------|
 ||-------------|---------------||-------------------|------------------|
 ||-------------|---------------||-------2-------0-2-|-(2)--------------|
 ||o------------|--------------o||-----2-------2---0-|-(0)-2------------|
 ||--(0)--------|-(0)--------0--||-(0)-----2-3-------|-----0---------0--|

E E E E E E E E +E E Q Q E E E E E E E E E E
 
 |-----------------|-----------------|-----------------|
 |-----------------|-----------------|-----------------|
 |-----------------|-----------------|-----------------|
 |-----2-------0-2-|-(2)-------------|-----2-------0-2-|
 |---2-------2---0-|-(0)-2-----------|---2-------2---0-|
 |-0-----2-3-------|-----0---------0-|-0-----2-3-------|

|
| Gtr III
| W W W
 
 |-----------------|-----------------|-----------------|
 |-----------------|-----------------|-----------------|
 |-----------------|-----------------|-----------------|
 |-----------------|-----------------|-----------------|
 |-----------------|-----------------|-----------------|
 |-----------------|-----------------|-----------------|

~
+E E Q Q E E E E E E E E E E
 
 |-----------------|--------------------|
 |-----------------|--------------------|
 |-----------------|--------------------|
 |-(2)-----------2-|----------0---1-----|
 |-(0)-2---------0-|------2---0---1---2-|
 |-----0-----------|------0-------------|

|
| H H +H.. E
 
 |-----------------|--------------------|
 |-----------------|--------------------|
 |-----------------|------------------4-|
 |-----------------|--------------------|
 |-----------------|------------------2-|
 |----------0------|-(0)----------------|
 ~~~ PM--| PM--| PM--|

+E E E E E E E E E E E E S E S E E
 
 |--------------------------|---------------------------------|
 |--------------------------|---------------------------------|
 |--------------------------|---------------------------------|
 |--------------------------|---------------------------------|
 |-(2)-2-0---1---2-2--0---1-|---2--2---0---1--2----1------0---|
 |--------------------------|---------------------------------|

|
| +E E S S S S Q +Q E E +Q E. S +E +E
 
 |--------------------------|----------------/7----7-(7)-(7)\-|
 |--------------------------|----------------/7----7-(7)-(7)\-|
 |-(4)-4-x-x-x-x-8---(8)\---|-/11-11-(11)\--------------------|
 |-------x-x-x-x------------|--/9--9--(9)\--------------------|
 |-(2)-2-x-x-x-x-6---(6)\---|---------------------------------|
 |--------------------------|---------------------------------|

Chorus
H.. E +W
 
 ||--------------------|--------------------|
 ||o-------------------|--------------------|
 ||--------------------|--------------------|
 ||------------------2-|-(2)----------------|
 ||o-2---------------0-|-(0)----------------|
 ||--0-----------------|--------------------|

|
| Gtr II
| E E E E E E E E E E E E E E E E
 
 ||--------------------|--------------------|
 ||o-----5-----5-----2-|-----2-------3------|
 ||--------4-----4-----|--2----2-------2----|
 ||--2-------2-----2---|---------2h4-----4--|
 ||o-------------------|--------------------|
 ||--------------------|--------------------|

1.
H.. E E E E E +E E E E
 
 |-------------------|--------------------||
 |-------------------|-------------------o||
 |-------------------|--------------------||
 |-----------------2-|---2----------------||
 |-2---------------0-|---0---------------o||
 |-0-----------------|-------2-(2)-3-2-0--||

|
| E E E E E E E E E E E E E E Q
 
 |-------------------|--------------------||
 |-----5-----5-----2-|---2---------2-----o||
 |-------4-----4-----|-2---2--------------||
 |-2-------2-----2---|-------2h=4----4----||
 |-------------------|-------------------o||
 |-------------------|--------------------||

2nd Verse
2.
[E] [E] [E] [E] [+E] [E] [E] [E] [+E] [E] [E] [E] [E] [E] [E] [E]  
 
 |-------------------||--------------------|
 |-------------------||o-------------------|
 |-------------------||--------------------|
 |---2---------------||--------2-------0-2-|
 |---0---------------||o-----2-------2---0-|
 |-------2-(2)-3-2-0-||--(0)-----2-3-------|

|
| E E E E E E E E +E E Q H
 
 |-------------------||--------------------|
 |---2---------2-----||o-------------------|
 |-2---2-------------||--------------------|
 |-------2h=4----4-2-||--(2)---------------|
 |-------------------||o-------------------|
 |-------------------||--------------------|
 PM--------|

+E E E E E E E E 4x +E E E E E E E E
 
 |--------------------||--------------------|
 |-------------------o||--------------------|
 |--------------------||--------------------|
 |-(2)----------------||-------2-------0--2-|
 |-(0)-2-------------o||-----2-------2----0-|
 |-----0-0-0-0-0-0-0--||-(0)-----2-3--------|

|
| Gtr III
| W 4x Q E E Q Q
 
 |--------------------||--------------------|
 |-------------------o||--------------------|
 |--------------------||-------9s7-7---7\---|
 |--------------------||--------------------|
 |-------------------o||-------7s5-5---5\---|
 |--------------------||--------------------|
 PM--------| PM--------|

[+E] [E] [E] [E] [E] [E] [E] [E] [+E] [E] [E] [E] [E] [E] [E] [E] [+E] [E] [E] [E] [E] [E] [E] [E]  
 
 |-------------------|--------------------|-------------------|
 |-------------------|--------------------|-------------------|
 |-------------------|--------------------|-------------------|
 |-(2)---------------|-------2-------0--2-|-(2)---------------|
 |-(0)-2-------------|-----2-------2----0-|-(0)-2-------------|
 |-----0-0-0-0-0-0-0-|-(0)-----2-3--------|-----0-0-0-0-0-0-0-|

|
| W Q E E Q Q W
 
 |-------------------|--------------------|-------------------|
 |-------------------|--------------------|-------------------|
 |-------------------|-------9s7-7---7\---|-------------------|
 |-------------------|--------------------|-------------------|
 |-------------------|-------7s5-5---5\---|-------------------|
 |-------------------|--------------------|-------------------|
 PM------| PM------| ~

[E] [E] [E] [E] [E] [E] [E] [E] [+E] [E] [E] [E] [E] [E] [E] [E] [+E] [E] [E] [E] [E] [E] [E] [E] [E] [E] [E] [E] [E] [E] [E] [E]  
 
 |------------------|-------------------|-------------------|-------------------|
 |------------------|-------------------|-------------------|-------------------|
 |------------------|-------------------|-------------------|-------------------|
 |-----2-------0--2-|-(2)-------------2-|-(2)-------------2-|---------0---1-----|
 |---2-------2----0-|-(0)-2-----------0-|-(0)-2-----------0-|-----2---0---1---2-|
 |-0-----2-3--------|-----0-0-0-0-0-0---|-----0-0-0-0-0-0---|-----0-------------|

|
| Q E E Q Q W W H.. E
 
 |------------------|-------------------|-------------------|-------------------|
 |------------------|-------------------|-------------------|-------------------|
 |-----9s7-7---7\---|-------------------|-------------------|-----------------4-|
 |------------------|-------------------|-------------------|-------------------|
 |-----7s5-5---5\---|-------------------|-------------------|-----------------2-|
 |------------------|-------------------|-------------------|-------------------|
 ~~~ PM--| PM--| PM--|

+E E E E E E E E E E E E S E S E E
 
 |--------------------------|---------------------------------||
 |--------------------------|---------------------------------||
 |--------------------------|---------------------------------||
 |--------------------------|---------------------------------||
 |-(2)-2-0---1---2-2--0---1-|---2--2---0---1--2----1------0---||
 |--------------------------|---------------------------------||

|
| +E E S S S S Q +Q E E +Q E. S +E +E
 
 |--------------------------|----------------/7----7-(7)-(7)\-||
 |--------------------------|----------------/7----7-(7)-(7)\-||
 |-(4)-4-x-x-x-x-8---(8)\---|-/11-11-(11)\--------------------||
 |-------x-x-x-x------------|--/9--9--(9)\--------------------||
 |-(2)-2-x-x-x-x-6---(6)\---|---------------------------------||
 |--------------------------|---------------------------------||

Chorus
$
Gtr I
H.. E +W
 
 ||--------------------|-------------------|
 ||o-------------------|-------------------|
 ||--------------------|-------------------|
 ||------------------2-|-(2)---------------|
 ||o-2---------------0-|-(0)---------------|
 ||--0-----------------|-------------------|

|
| Gtr II
| E E E E E E E E E E E E E E E E
 
 ||--------------------|-------------------|
 ||o-----5-----5-----2-|-----2-------3-----|
 ||--------4-----4-----|--2----2-------2---|
 ||--2-------2-----2---|---------2h4-----4-|
 ||o-------------------|-------------------|
 ||--------------------|-------------------|

H.. E E E E E +E E E E 3x
 
 |-------------------|---------------------||
 |-------------------|--------------------o||
 |-------------------|---------------------||
 |-----------------2-|---2-----------------||
 |-2---------------0-|---0----------------o||
 |-0-----------------|-------2-(2)-3-2-0---||

|
| E E E E E E E E E E E E E E Q 3x
 
 |-------------------|---------------------||
 |-----5-----5-----2-|---2---------2------o||
 |-------4-----4-----|-2---2---------------||
 |-2-------2-----2---|-------2h=4----4-----||
 |-------------------|--------------------o||
 |-------------------|---------------------||

To Coda
H.. E +W
 
 |-------------------|-------------------|
 |-------------------|-------------------|
 |-------------------|-------------------|
 |-----------------2-|-(2)---------------|
 |-2---------------0-|-(0)---------------|
 |-0-----------------|-------------------|

|
| E E E E E E E E E E E E E E E E
 
 |-------------------|-------------------|
 |-----5-----5-----2-|-----2-------3-----|
 |-------4-----4-----|--2----2-------2---|
 |-2-------2-----2---|---------2h4-----4-|
 |-------------------|-------------------|
 |-------------------|-------------------|

H.. E E E E E +E E E E
 
 |-------------------|-------------------||
 |-------------------|-------------------||
 |-------------------|-------------------||
 |-----------------2-|---2---------------||
 |-2---------------0-|---0---------------||
 |-0-----------------|-------2-(2)-3-2-0-||

|
| E E E E E E E E E E E E E E Q
 
 |-------------------|-------------------||
 |-----5-----5-----2-|---2---------2-----||
 |-------4-----4-----|-2---2-------------||
 |-2-------2-----2---|-------2h=4----4---||
 |-------------------|-------------------||
 |-------------------|-------------------||

Bridge
[E5]Gtr I
E E Q H W W W
|
[/]  
Gtr IV
[E] [E] [E] [E] [E] [E] [E] [E] [E] [E] [E] [E] [E] [E] [E] [E] [E] [E] [E] [E] [E] [E] [E] [E] [E] [E] [E] [E] [E] [E] [E] [E]  
 
 |---0-----0-----0-|---0-----0-----0-|---0-----0-----0-|---0-----0-----0-|
 |-----------------|-----------------|-----------------|-----------------|
 |-----9-----9-----|-----8-----8-----|-----7-----7-----|-----6-----6-----|
 |-9-----9-----9---|-9-----9-----9---|-7-----7-----7---|-7-----7-----7---|
 |-----------------|-----------------|-----------------|-----------------|
 |-----------------|-----------------|-----------------|-----------------|

E5VII
W W W H Q E E
|
[/] 
[E] [E] [E] [E] [E] [E] [E] [E] [E] [E] [E] [E] [E] [E] [E] [E] [E] [E] [E] [E] [E] [E] [E] [E] [E] [E] [E] [E] [E] [E] [E] [E]  
 
 |---0-----0-----0-|---0-----0-----0-|---0-----0--------|-----------------|
 |-----------------|-----------------|---------------10-|-----9---9-----9-|
 |-----5-----5-----|-----7-----7-----|-----9-----9------|-9-----9---9-----|
 |-5-----5-----5---|-7-----7-----7---|-9-----9-----9----|---9---------9---|
 |-----------------|-----------------|------------------|-----------------|
 |-----------------|-----------------|------------------|-----------------|

H Q E [B/D#]E E E H E E [D5]H Q E [A/C#]E
| | | | | | | | | | | |
/ / x / / / x x / / x /
[E] [E] [E] [E] [E] [E] [E] [E] [E] [E] [E] [E] [E] [E] [E] [E] [E] [E] [E] [E] [E] [E] [E] [E]  
 
 |---0-----0-----0-|---0-----0-----0-|---0-----0-----0-|
 |-----------------|-----------------|-----------------|
 |-----9-----9-----|-----8-----8-----|-----7-----7-----|
 |-9-----9-----9---|-9-----9-----9---|-7-----7-----7---|
 |-----------------|-----------------|-----------------|
 |-----------------|-----------------|-----------------|

E E H E E [C5]H Q E [D5]E E E Q +Q. E
| | | | | | | | | | | |
/ / x x / / x / / / / o
Gtr IV
E E E E E E E E E E E E E E E E E E E E Q. E
 
 |---0------------0-----------0--|---0-----0-----0-|-----0------0------||
 |-------------------------------|-----------------|-------------------||
 |-----6-------------6-----------|-----5-----5-----|-------7-----------||
 |-7------7--------------7-------|-5-----5-----5---|--7------7---------||
 |-------------------------------|-----------------|-------------------||
 |-------------------------------|-----------------|-------------------||

|
| Gtr III
| Q E E +Q +E +E W +W
 
 |-------------------------------|-----------------|-------------------||
 |-------------------------------|-----------------|-------------------||
 |-------11b12==(11)---(11)r(11)-|-9---------------|-(9)---------------||
 |-------------------------------|-----------------|-------------------||
 |-------------------------------|-----------------|-------------------||
 |-------------------------------|-----------------|-------------------||

Guitar Solo
Gtr III
Q S S e S e S e S S Q S S e S e S e S S
 
 |--9------------------------|--9------------------------|
 |-------8-8-8-8-8---8-8-8-8-|-------8-8-8-8-8---8-8-8-8-|
 |---------------------------|---------------------------|
 |---------------------------|---------------------------|
 |---------------------------|---------------------------|
 |---------------------------|---------------------------|

|
| Gtr I
 
 | PM--------------|

| E E E E E E E E +E E E E E E E E
 
 |---------------------------|---------------------------|
 |---------------------------|---------------------------|
 |---------------------------|---------------------------|
 |-------2-------------0-2---|-(2)-----------------------|
 |-----2-----------2-----0---|-(0)-2---------------------|
 |-(0)-------2-3-------------|-----0-0---0-0---0---0-0---|

Q S S e S e S e S S
 
 |--9-------------------------|
 |-------8-8-8-8-8---8-8-8-8--|
 |----------------------------|
 |----------------------------|
 |----------------------------|
 |----------------------------|

|
| +E E E E E E E E
 
 |----------------------------|
 |----------------------------|
 |----------------------------|
 |-------2-------------0-2----|
 |-----2-----------2-----0----|
 |-(0)-------2-3--------------|

~~~~~~~~~~~~~~~
E E E E E E +E E +Q Q Q Q
 
 |--9------------------------|-------------------|
 |--------8-8-8-8-7pb8r(7)---|-------------------|
 |--------7----------------9-|-(9)---9---9---9---|
 |-----/9-----9--------------|-------------------|
 |---------------------------|-------------------|
 |---------------------------|-------------------|

| Q S S e H
|
 
 | PM---------------|

| +E E E E E E E E +E E E E E E E E
 
 |---------------------------|-------------------|
 |---------------------------|-------------------|
 |---------------------------|-------------------|
 |-(2)-----------------------|-------2-------0-2-|
 |-(0)--2--------------------|-----2-------2---0-|
 |------0-0---0-0-0-----0--0-|-(0)-----2-3-------|

~~~~~~~~~~~ PM|
E. S +Q +E +E S S E +Q Q Q E E
 
 |---------------------------------------|---------------------|
 |-------10-(10)---(10)b12==(10)r-8-10---|---------------9-----|
 |-------------------------------------9-|-(9)---9---9---------|
 |---------------------------------------|-----------------11--|
 |---------------------------------------|---------------------|
 |---------------------------------------|---------------------|

|
 
 | PM-----------------------|

| +E E E E E E E E +E E E E E E E E
 
 |---------------------------------------|---------------------|
 |---------------------------------------|---------------------|
 |---------------------------------------|---------------------|
 |-(2)-----------------------------------|-------2-------0--2--|
 |-(0)-2---------------------------------|-----2-------2----0--|
 |-----0------0--0---0--------0---0----0-|-(0)-----2-3---------|

~~~~~
 
 |--3--| |--3--| |--3--|

E S S E S S S E S S E S S S E S S S E +E +Q. E
 
 |------------------12-------------12----------12-------|-------12-------------------------------|
 |-/12--15-12-15b17----15-12-15b16----12-14b15----15-12-|----------15-12-15b17==(15)-(15)r-------|
 |------------------------------------------------------|-14b16----------------------------------|
 |------------------------------------------------------|----------------------------------------|
 |------------------------------------------------------|----------------------------------------|
 |------------------------------------------------------|----------------------------------------|

|
 
 | PM------------------------------|

| +E E E E E E E E +E E E E E E E E
 
 |------------------------------------------------------|----------------------------------------|
 |------------------------------------------------------|----------------------------------------|
 |------------------------------------------------------|----------------------------------------|
 |--(2)-------------------------------------------------|-----------------2------------------0-2-|
 |--(0)--2----------------------------------------------|--------2-------------------------2---0-|
 |-------0-----0-----0--------0-----0-----0-----0-------|-(0)---------------------2----3---------|

a a S S S S +S S S S S S S S S S +S S
 
 |-----12----------------------------------12------------------------|
 |---x-----16-12---------------15p12----------12h15------------------|
 |-x-------------14b16r(14)p12-------14b16----------12---------------|
 |-----------------------------------------------------14b16r(14)p12-|
 |-------------------------------------------------------------------|
 |-------------------------------------------------------------------|

|
 
 | PM----------------------------------|

| +E E E E E E E E
 
 |-------------------------------------------------------------------|
 |-------------------------------------------------------------------|
 |-------------------------------------------------------------------|
 |-----(2)-----------------------------------------------------------|
 |-----(0)-----2-----------------------------------------------------|
 |-------------0---------0------0-----0--------0-----0---------0-----|

~~~~~~~~~~
Q E E +E E E E +E +S S S E. +Q E E
 
 |-----------------------------------12--------|--------------------------------18-|
 |-----------15--------------------------------|-----------------------------------|
 |-14b16====(14)r-14b16==(14)r-14b16----14b16==|=(14)r(14)p12-14-12----(12)-----15-|
 |---------------------------------------------|-----------------------------------|
 |---------------------------------------------|-----------------------------------|
 |---------------------------------------------|-----------------------------------|

|
 
 | PM---------------|

| +E E E E E E E E +E E E E E E E E
 
 |---------------------------------------------|-----------------------------------|
 |---------------------------------------------|-----------------------------------|
 |---------------------------------------------|-----------------------------------|
 |------------2-----------------------0--2-----|--(2)------------------------------|
 |--------2---------------------2--------0-----|--(0)---2--------------------------|
 |-(0)-------------2-------3-------------------|--------0------0-----0---0--0-0--0-|

~~~~~~~~~
Q. +E +Q E E +Q Q S S E Q
 
 |-18b19======(18)-(18)r-----15-|-(15)---15b17---15p12----15b17----|
 |------------------------------|----------------------12----------|
 |------------------------------|----------------------------------|
 |------------------------------|----------------------------------|
 |------------------------------|----------------------------------|
 |------------------------------|----------------------------------|

|
 
 | PM--------------------|

| +E E E E E E E E +E E E E E E E E
 
 |------------------------------|----------------------------------|
 |------------------------------|----------------------------------|
 |------------------------------|----------------------------------|
 |----------2--------------0--2-|--(2)-----------------------------|
 |--------2--------------2----0-|--(0)-2---------------------------|
 |-(0)----------2----3----------|------0--0----0--0-----0--0----0--|

~~~ ~~
Q S S E Q Q S S S S S S S S S S S S S S E
 
 |-15----15p12----15b18---15---|-15p=12-------12-----------------------------------|
 |-------------12--------------|--------12h15----12-15p12-15p12-------12-----------|
 |-----------------------------|--------------------------------12h14----12-14b16==|
 |-----------------------------|---------------------------------------------------|
 |-----------------------------|---------------------------------------------------|
 |-----------------------------|---------------------------------------------------|

|
 
 | PM---------------------| ~~~~~~~

| +E E E E E E E E +E E E E E E E E
 
 |-----------------------------|---------------------------------------------------|
 |-----------------------------|---------------------------------------------------|
 |-----------------------------|---------------------------------------------------|
 |--------2----------------0-2-|-(2)-----------------------------------------------|
 |-----2----------------2----0-|-(0)-----2-----------------------------------2-----|
 |-(0)----------2--3-----------|---------0-----0-----0-----0-----0-----0-----------|

+E Q a +E E E E E
 
 |-------11--------------14-14-------|
 |--------------11-------------------|
 |-(14)-(14)---(14)r(14)-14-14-14s16-|
 |-----------------------------------|
 |-----------------------------------|
 |-----------------------------------|

|
|~~~~~~ PM-----| PM|
| +E E E E E E E E
 
 |-----------------------------------|
 |-----------------------------------|
 |-----------------------------------|
 |-----------------------------------|
 |--(2)---2--0--------1---2--2--0--1-|
 |-----------------------------------|

D.S. al Coda
~~~~~~~~~~~~~~~~~~~~~~~~~~~~~
E S S +S S E S E. +Q +H. +E. +S
 
 |-16----17-(17)----18----19----(19)---|-(19)------(19)-(19)\-||
 |---------------------16--------------|----------------------||
 |----14---------18--------------------|----------------------||
 |-------------------------------------|----------------------||
 |-------------------------------------|----------------------||
 |-------------------------------------|----------------------||

|
| PM----|
| E E E E S E S E e W
 
 |-------------------------------------|----------------------||
 |-------------------------------------|----------------------||
 |-------------------------------------|----------------------||
 |-------------------------------------|----------------------||
 |--2--2------0------1--2-----1------0-|----------------------||
 |-------------------------------------|----------------------||

&
Gtr III
H Q E S S S S S S S S S S S S S S S S S S
 
 |-----------------------|--------------------------------------------------|
 |-----------------------|--------------------------------------15p12-------|
 |-----------------------|----------12-14p12--------------12-12-------14p12-|
 |-----------------------|-------12----------14p12-12h=14-------------------|
 |-----------------12-12-|-12h14--------------------------------------------|
 |-----------------------|--------------------------------------------------|

|
| Gtr I
| H.. E E E E E +E E E E
 
 |-----------------------|--------------------------------------------------|
 |-----------------------|--------------------------------------------------|
 |-----------------------|--------------------------------------------------|
 |------------------2----|--------2-----------------------------------------|
 |-2----------------0----|--------0-----------------------------------------|
 |-0---------------------|--------------------2----(2)-----3-----2-----0----|

|
| Gtr II
| E E E E E E E E E E E E E E Q
 
 |-----------------------|--------------------------------------------------|
 |-----5-----5------2----|--------2------------------------2----------------|
 |-------4-----4---------|--2-----------2-----------------------------------|
 |-2-------2-----2-------|--------------------2h====4------------4----------|
 |-----------------------|--------------------------------------------------|
 |-----------------------|--------------------------------------------------|

Outro
Gtr III
Q E E +E E E E E Q E E E E E
 
 |------------------------------------------|--------------------------|
 |-----------12---12--(12)----------12------|-12-------12-----12-12-12-|
 |-14b16====(14)-(14)-(14)r-14b16==(14)r-14-|-----14------12--12-12----|
 |------------------------------------------|--------------------------|
 |------------------------------------------|--------------------------|
 |------------------------------------------|--------------------------|

|
| PM PM----|
| E E E E +E E E E +E E E E +E E E E
 
 |------------------------------------------|--------------------------|
 |------------------------------------------|--------------------------|
 |------------7----9---(9)------------------|--------------------------|
 |------------7----9---(9)----------------2-|-(2)--------------------0-|
 |--2---------5----7---(7)----------------0-|-(0)--3-2--0-(0)--2--3----|
 |--0-----0------------------0-------0------|--------------------------|

E E E E E E E E E Q E +E E E E
 
 |------------------------------------------------|---------------------------|
 |---------12---12-----------12-----------12------|-12-------12-(12)-12-12-12-|
 |-14b16==(14)-(14)r-14b16==(14)r-14b16==(14)r-14-|-----14---12-(12)-12-12-12-|
 |------------------------------------------------|---------------------------|
 |------------------------------------------------|---------------------------|
 |------------------------------------------------|---------------------------|

|
| PM PM----|
| E E E E +E E E E +E E E E +E E E E
 
 |------------------------------------------------|---------------------------|
 |------------------------------------------------|---------------------------|
 |---------------7----9------(9)------------------|---------------------------|
 |--2------------7----9------(9)----------------2-|-(2)---------------------0-|
 |---------------5----7------(7)----------------0-|-(0)--3-2--0--(0)--2--3----|
 |----------0----------------------0-------0------|---------------------------|

E E E E E E E E E Q E +E E E E
 
 |------------------------------------------------|---------------------------|
 |---------12---12-----------12-----------12------|-12-------12-(12)-12-12-12-|
 |-14b16==(14)-(14)r-14b16==(14)r-14b16==(14)r-14-|-----14---12-(12)-12-12-12-|
 |------------------------------------------------|---------------------------|
 |------------------------------------------------|---------------------------|
 |------------------------------------------------|---------------------------|

|
| PM PM----|
| E E E E +E E E E +E E E E +E E E E
 
 |------------------------------------------------|---------------------------|
 |------------------------------------------------|---------------------------|
 |---------------7----9------(9)------------------|---------------------------|
 |--2------------7----9------(9)----------------2-|-(2)---------------------0-|
 |---------------5----7------(7)----------------0-|-(0)--3-2--0--(0)--2--3----|
 |----------0----------------------0-------0------|---------------------------|

E E E E E E E E E Q E +E E E E
 
 |------------------------------------------------|---------------------------|
 |---------12---12-----------12-----------12------|-12-------12-(12)-12-12-12-|
 |-14b16==(14)-(14)r-14b16==(14)r-14b16==(14)r-14-|-----14---12-(12)-12-12-12-|
 |------------------------------------------------|---------------------------|
 |------------------------------------------------|---------------------------|
 |------------------------------------------------|---------------------------|

|
| PM PM----| PM| PM
| E E E E +E E E E +E E E E +E E E E
 
 |------------------------------------------------|---------------------------|
 |------------------------------------------------|---------------------------|
 |---------------7----9------(9)------------------|---------------------------|
 |--2------------7----9------(9)----------------2-|-(2)-----------------------|
 |---------------5----7------(7)----------------0-|-(0)-------4--(4)--5--4----|
 |----------0----------------------0-------0------|------0-0--2--(2)--3--2--0-|

E E E E E E E E E Q E +E E E E
 
 |------------------------------------------------|---------------------------|
 |---------12---12-----------12-----------12------|-12-------12-(12)-12-12-12-|
 |-14b16==(14)-(14)r-14b16==(14)r-14b16==(14)r-14-|-----14---12-(12)-12-12-12-|
 |------------------------------------------------|---------------------------|
 |------------------------------------------------|---------------------------|
 |------------------------------------------------|---------------------------|

|
| PM PM----|
| E E E E +E E E E +E E E E +E E E E
 
 |------------------------------------------------|---------------------------|
 |------------------------------------------------|---------------------------|
 |---------------7----9------(9)------------------|---------------------------|
 |---------------7----9------(9)----------------2-|-(2)---------------------0-|
 |--2------------5----7------(7)----------------0-|-(0)--3-2--0--(0)--2--3----|
 |--0-------0----------------------0-------0------|---------------------------|

E E E E E E E E E Q E +E E E E
 
 |------------------------------------------------|---------------------------*|
 |---------12---12-----------12-----------12------|-12-------12-(12)-12-12-12-*|
 |-14b16==(14)-(14)r-14b16==(14)r-14b16==(14)r-14-|-----14---12-(12)-12-12-12-*|
 |------------------------------------------------|---------------------------*|
 |------------------------------------------------|---------------------------*|
 |------------------------------------------------|---------------------------*|

|
| PM PM----|
| E E E E +E E E E +E E E E +E E E E
 
 |------------------------------------------------|---------------------------*|
 |------------------------------------------------|---------------------------*|
 |---------------7----9------(9)------------------|---------------------------*|
 |--2------------7----9------(9)----------------2-|-(2)---------------------0-*|
 |---------------5----7------(7)----------------0-|-(0)--3-2--0--(0)--2--3----*|
 |----------0----------------------0-------0------|---------------------------*|

Duration Legend
 
 ---------------
 W - whole; H - half; Q - quarter; E - 8th; S - 16th; T - 32nd; X - 64th; a - acciaccatura

+ - note tied to previous; . - note dotted; .. - note double dotted
Uncapitalized letters represent notes that are staccato (1/2 duration)
Irregular groupings are notated above the duration line
Duration letters will always appear directly above the note/fret number it represents the
duration for. Duration letters with no fret number below them represent rests. Multi-
bar rests are notated in the form Wxn, where n is the number of bars to rest for. Low
melody durations appear below the staff
Tablature Legend
 
 ----------------

h - hammer-on
p - pull-off
b - bend
pb - pre-bend
r - bend release (if no number after the r, then release immediately)
/\ - slide into or out of (from/to "nowhere")
s - legato slide
S - shift slide
- natural harmonic
(n) - artificial harmonic
n(n) - tapped harmonic
~ - vibrato
tr - trill
T - tap
TP - trem. picking
PM - palm muting
\n/ - tremolo bar dip; n = amount to dip
\n - tremolo bar down
n/ - tremolo bar up
/n\ - tremolo bar inverted dip
= - hold bend; also acts as connecting device for hammers/pulls
- volume swell (louder/softer)
x - on rhythm slash represents muted slash
o - on rhythm slash represents single note slash
Misc Legend
 
 -----------

| - bar
|| - double bar
||o - repeat start
o|| - repeat end
*| - double bar (ending)
: - bar (freetime)
$ - Segno
& - Coda
Tempo markers - = BPM(8/16=s8/s16), where s8 = swing 8ths, s16 = swing 16ths

Important: The song above is NOT stored on the Chordie server. The original song is hosted at www.guitaretab.com. Chordie works as a search engine and provides on-the-fly formatting. Chordie does not index songs against artists'/composers' will. To remove this song please click here.

Text color:
Chord color:
Chord grids: 
Font size:    
Page size: 

A/C# C5 D5 E E5
Rate #1 of 1 versions

Jango Player

Login - add to songbook

SHARE PAGE  



You need to log in to post comments