Guitar Tabs, Chords and Lyrics
Update 25:10. 13:00. Site is back up running again. Songbooks are recovered. Woring on getting search back up..


I'll Be There  Megadeth

ILL BE THERE
As recorded by Megadeth
(From the 1999 Album RISK)
Transcribed by MasterB
Music by Dave Mustaine, Marty Friedman and Bud Prager
[D]x 5 7 7 7 x
[D5]x 5 7 x x x
[Bb/D]x x 0 7 6 6
[Am]x 0 2 2 1 0
[G5]3 x 0 0 3 3
[Fmaj7+11]1 3 3 2 0 0
[E]0 2 2 1 0 0
D5open
x x 0 2 x x
[D7]x 5 7 5 7 x
[Asus4]x 0 2 2 3 0
[A]x 0 2 2 2 0
D5open(type 2)
x x 0 2 3 x
[D5/A]x 0 0 2 3 x
[C5]x 3 5 5 x x
[Bb5]x 1 3 3 x x
[C/G]x x x 12 13 12
Gtr I (E A D G B E) - 'Distorted'
Gtr II (E A D G B E) - 'Slightly Distorted'
Gtr III (E A D G B E) - 'Clean'
Gtr IV (E A D G B E) - 'Distorted II'
Gtr V (E A D G B E) - 'Clean II'
Gtr VI (E A D G B E) - 'Distorted III'
INTRO Verse
Free Time Q=55 Moderately Q=113
[4/4] Gtr I Gtr II
TP
H Q E E W Wx4 E E E E E E E E E Q. +H
 
 |---------------|----------|------------||-----------0-----|---------------|
 |---------------|-3--------|------------||-------7-------7-|---------------|
 |-----------[2]-|-2--------|------------||---7-------------|---7----(7)----|
 |---------------|-0--------|------------||-0---0---0---0---|-0-------------|
 |---------------|----------|------------||-----------------|---------------|
 |---------------|----------|------------||-----------------|---------------|

Gtrs II, III
E E E E E E E E E Q. +H E E E E E E E E E Q. +H
 
 |-----------0-----|---------------|-----------0-----|---------------|
 |-------7-------7-|---------------|-------6-------6-|---------------|
 |---5-------------|---5----(5)----|---3-------------|---3----(3)----|
 |-0---0---0---0---|-0-------------|-0---0---0---0---|-0-------------|
 |-----------------|---------------|-----------------|---------------|
 |-----------------|---------------|-----------------|---------------|

E E E E E E E E E E E E E E E E E E E E E E E E E Q. +H
 
 |-----------0-----|-----------0-----|-----------0-----|-------------------|
 |-------6-------6-|-------6-------6-|-------7-------7-|-------------------|
 |---3-------------|---5-------------|---7-------------|----7----(7)-------|
 |-0---0---0---0---|-0---0---0---0---|-0---0---0---0---|-0-----------------|
 |-----------------|-----------------|-----------------|-------------------|
 |-----------------|-----------------|-----------------|-------------------|

|
| Gtr I Gtr IV
| < <
| H Q E E E E E E E E E E W H. Q
 
 |-----------------|-----------------|-5---------------|-5-----------------|
 |-----------------|-----------------|-3---------------|-3------------3s===|
 |-----------------|-----------------|-----------------|-------------------|
 |-------------7-7-|-7-7-7-7-7-7-7-7-|-----------------|-------------------|
 |-------------5-5-|-5-5-5-5-5-5-5-5-|-----------------|-------------------|
 |-----------------|-----------------|-----------------|-------------------|

E E E E E E E E E Q. +H
 
 |------------0-----|------------------|
 |--------7-------7-|------------------|
 |----5-------------|------5----(5)----|
 |--0---0---0---0---|---0--------------|
 |------------------|------------------|
 |------------------|------------------|

|
| W +W
 
 |------------------|------------------|
 |-10---------------|-(10)-------------|
 |------------------|------------------|
 |------------------|------------------|
 |------------------|------------------|
 |------------------|------------------|

E E E E E E E E E Q. +H
 
 |--------------0------------|------------------|
 |----------6---------6------|------------------|
 |------3--------------------|---3----(3)-------|
 |---0----0---0----0---------|-0----------------|
 |---------------------------|------------------|
 |---------------------------|------------------|

|
| +H. E. +S H +E Q.
 
 |---------------------------|------------------|
 |-(10)-----------10----(10)s|=8------(8)s13----|
 |---------------------------|------------------|
 |---------------------------|------------------|
 |---------------------------|------------------|
 |---------------------------|------------------|

Gtr V[D] [D]
W H Q E S S
| |
[/] [/] 
[E] [E] [E] [E] [E] [E] [E] [E] [E] [E] [E] [E] [E] [E] [E] [E]  
 
 |--------------0-------------|------------0-------|
 |----------6----------6------|-------6--------6---|
 |------3---------------------|---5----------------|
 |---0----0---0-----0---------|-0---0----0---0-----|
 |----------------------------|--------------------|
 |----------------------------|--------------------|

|
| +H. +E. +S H H
 
 |----------------------------|--------------------|
 |-(13)-----------(13)---(13)s|=8s======13---------|
 |----------------------------|--------------------|
 |----------------------------|--------------------|
 |----------------------------|--------------------|
 |----------------------------|--------------------|

|
| Gtr I
| <
| H E E E E E E E E E E E S S
 
 |----------------------------|--------------------|
 |----------------------------|--------------------|
 |----------------------------|--------------------|
 |------------7-7---7--7------|-7-7-7-7--7-7-7-7-7-|
 |------------5-5---5--5------|-5-5-5-5--5-5-5-5-5-|
 |----------------------------|--------------------|

W +H. +E S S
| | | | |
[/] [/] [/] [/] [/] 
E E E E E E E E E Q. +H
 
 |------------0-----|------------------------|
 |--------7-------7-|------------------------|
 |----7-------------|------7----(7)----------|
 |--0---0---0---0---|---0--------------------|
 |------------------|------------------------|
 |------------------|------------------------|

|
| W +W
 
 |------------------|------------------------|
 |-10---------------|-(10)-------------------|
 |------------------|------------------------|
 |------------------|------------------------|
 |------------------|------------------------|
 |------------------|------------------------|

|
| W +H. +E S S
 
 |------------------|------------------------|
 |------------------|------------------------|
 |------------------|------------------------|
 |--7---------------|--(7)-----------(7)-7-7-|
 |--5---------------|--(5)-----------(5)-5-5-|
 |------------------|------------------------|

W +H. +E [Bb/D]S S
| | | | |
[/] [/] [/] [/] [/] 
E E E E E E E E E Q. +H
 
 |--------------0-----|-----------------------|
 |----------7-------7-|-----------------------|
 |------5-------------|------5----(5)---------|
 |---0----0---0---0---|---0-------------------|
 |--------------------|-----------------------|
 |--------------------|-----------------------|

|
| +W +W
 
 |--------------------|-----------------------|
 |-(10)---------------|-(10)------------------|
 |--------------------|-----------------------|
 |--------------------|-----------------------|
 |--------------------|-----------------------|
 |--------------------|-----------------------|

|
| +W +W
 
 |--------------------|-----------------------|
 |--------------------|-----------------------|
 |--------------------|-----------------------|
 |--(7)---------------|--(7)------------------|
 |--(5)---------------|--(5)------------------|
 |--------------------|-----------------------|

W +H. +E S S
| | | | |
[/] [/] [/] [/] [/] 
E E E E E E E E E Q. +H
 
 |-----------0-----|---------------------------------|
 |-------6-------6-|---------------------------------|
 |---3-------------|-----3----------(3)--------------|
 |-0---0---0---0---|--0------------------------------|
 |-----------------|---------------------------------|
 |-----------------|---------------------------------|

|
| W +Q +E. +S Q +E. +S
 
 |-----------------|---------------------------------|
 |-3---------------|-(3)----(3)-(3)s=5---(5)---(5)s==|
 |-----------------|---------------------------------|
 |-----------------|---------------------------------|
 |-----------------|---------------------------------|
 |-----------------|---------------------------------|

|
| W W
 
 |-----------------|---------------------------------|
 |-----------------|---------------------------------|
 |-----------------|---------------------------------|
 |-----------------|---------------------------------|
 |-----------------|---------------------------------|
 |-----------------|---------------------------------|

Chorus
W W [Am]W
| |
[/] [/] 
E E E E E E E E E E E E E E E E W
 
 |-----------0-----|-----------0-----||-------------------|
 |-------6-------6-|-------6-------6-||-------------------|
 |---3-------------|---5-------------||-------------------|
 |-0---0---0---0---|-0---0---0---0---||-------------------|
 |-----------------|-----------------||-------------------|
 |-----------------|-----------------||-------------------|

|
| W W W
 
 |-----------------|-----------------||-------------------|
 |-8---------------|-----------------||-------------------|
 |-----------------|-----------------||-------------------|
 |-----------------|-----------------||-------------------|
 |-----------------|-----------------||-------------------|
 |-----------------|-----------------||-------------------|

|
| <
| PM----|
| Q E E E E E E E E E E E E E E H +E E E a E
 
 |-----------------|-----------------||-------------------|
 |-----------------|-----------------||-------------------|
 |-----------------|-----------------||-------------------|
 |-----------7-7-7-|-5-5-5-5-3-3-3-3-||-2----(2)----------|
 |-----5-5-5-5-5-5-|-3-3-3-3-1-1-1-1-||-0----(0)-2-3-3s5--|
 |-----------------|-----------------||-------------------|

+H [G5] H Q [Fmaj7+11]H.
| | |
[/] [/] [/]  
Gtr I
[+E] [E] [E] [E] [+E] [E] [E] [E] [B] [+E] [E] [E] [a] [E]  
 
 |---------------------|--------------------|
 |---------------------|--------------------|
 |---------------------|--------------------|
 |---------------------|--------------------|
 |-(5)-3-2-------2---3-|-3------(3)-2-3-3s5-|
 |---------3-(3)---3-1-|-1------(1)---------|

+H [G5] E Q E E [Am]Q. +H
| | | | | |
[/] [/] [/] [/] [/] [/]  
[+E] [E] [E] [E] [+E] [E] [E] [E] [B] [+E] [E] [E] [a] [E]  
 
 |---------------------|--------------------|
 |---------------------|--------------------|
 |---------------------|--------------------|
 |-------------------2-|-2------(2)---------|
 |-(5)-3-2-------2---0-|-0------(0)-2-3-3s5-|
 |---------3-(3)---3---|--------------------|

+H [G5] H Q [Fmaj7+11]H.
| | |
[/] [/] [/]  
[+E] [E] [E] [E] [+E] [E] [E] [E] [B] [+E] [E] [E] [E]  
 
 |---------------------|------------------|
 |---------------------|------------------|
 |---------------------|------------------|
 |---------------------|------------------|
 |-(5)-3-2-------2---3-|-3------(3)-2-3S7-|
 |---------3-(3)---3-1-|-1------(1)-------|

+H [G5] E E Q Q [Am]H.
| | | |
[/] [/] [/] [/]  
[+E] [E] [E] [E] [+E] [E] [E] [E] [B] [+E] [E] [E] [a] [E]  
 
 |---------------------|---------------------|
 |---------------------|---------------------|
 |---------------------|---------------------|
 |---------------------|-2------(2)----------|
 |-(7)-5-3-5-(5)-3-2---|-0------(0)-2-3-3s5--|
 |-------------------3-|---------------------|

+H [G5] E E E E Q [Fmaj7+11]H +E [E]E +W W
| | | | | | | |
[/] [/] [/] [/] [/] [/] [/] [/] 
+E E E E +E E E E H. +E E W W
 
 |---------------------|----------------|-----------|--------------|
 |---------------------|----------------|-----------|--------------|
 |---------------------|----------------|-----------|--------------|
 |---------------------|----------------|-----------|--0-----------|
 |-(5)-3-2-------2---3-|-3--------(3)-2-|--2--------|--0-----------|
 |---------3-(3)---3-1-|-1--------(1)-0-|--0--------|--------------|

|
| Gtr IV
| W W W H H
 
 |---------------------|----------------|-----------|--------------|
 |---------------------|----------------|-----------|-15s===10s====|
 |---------------------|----------------|-----------|--------------|
 |---------------------|----------------|-----------|--------------|
 |---------------------|----------------|-----------|--------------|
 |---------------------|----------------|-----------|--------------|

+W +W +W
 
 |------------|------------|----------------------------||
 |------------|------------|----------------------------||
 |------------|------------|----------------------------||
 |-(0)--------|-(0)--------|--(0)-----------------------||
 |-(0)--------|-(0)--------|--(0)-----------------------||
 |------------|------------|----------------------------||

|
| H H W +W
 
 |------------|------------|----------------------------||
 |-13s===8s===|=10---------|-(10)-----------------------||
 |------------|------------|----------------------------||
 |------------|------------|----------------------------||
 |------------|------------|----------------------------||
 |------------|------------|----------------------------||

|
| Gtr III
| T T T
| W W E Q Q Q.
 
 |------------|------------|------0(12)-----------------||
 |------------|------------|-------------3(15)----------||
 |------------|------------|--------------------2(14)---||
 |------------|------------|----------------------------||
 |------------|------------|----------------------------||
 |------------|------------|----------------------------||

Verse II
Gtrs II, III
[E] [E] [E] [E] [E] [E] [E] [E] [E] [E] [E] [E] [E] [E] [E] [E] [E] [E] [E] [E] [E] [E] [E] [E] [E] [E] [E] [E] [E] [E] [E] [E]  
 
 |-----------0-----|-----------0-----|-----------0-----|-----------0------|
 |-------7-------7-|-------7-------7-|-------7-------7-|-------7-------7--|
 |---7-------------|---7-------------|---5-------------|---5--------------|
 |-0---0---0---0---|-0---0---0---0---|-0---0---0---0---|-0---0---0---0----|
 |-----------------|-----------------|-----------------|------------------|
 |-----------------|-----------------|-----------------|------------------|

W W
[E] [E] [E] [E] [E] [E] [E] [E] [E] [E] [E] [E] [E] [E] [E] [E]  
 
 |-----------0-----|-------------0-----|
 |-------6-------6-|---------6-------6-|
 |---3-------------|-----3-------------|
 |-0---0---0---0---|--0----0---0---0---|
 |-----------------|-------------------|
 |-----------------|-------------------|

|
| Gtr I
| H Q E E +W
 
 |-----------------|-------------------|
 |---------------3-|-(3)---------------|
 |-----------------|-------------------|
 |-----------------|-------------------|
 |-----------------|-------------------|
 |-----------------|-------------------|

|
| Gtr IV
| W W
 
 |-----------------|-------------------|
 |-----------------|-------------------|
 |-----------------|-------------------|
 |-----------------|-------------------|
 |-----------------|-------------------|
 |-----------------|-------------------|

Gtr V[D]
W H Q E S S
| |
[/] [/] 
[E] [E] [E] [E] [E] [E] [E] [E] [E] [E] [E] [E] [E] [E] [E] [E]  
 
 |-------------0-----|-------------0-------|
 |---------6-------6-|---------6-------6---|
 |-----3-------------|-----5---------------|
 |---0---0---0---0---|--0----0---0---0-----|
 |-------------------|---------------------|
 |-------------------|---------------------|

|
| +W +W
 
 |-------------------|---------------------|
 |--(3)--------------|-(3)-----------------|
 |-------------------|---------------------|
 |-------------------|---------------------|
 |-------------------|---------------------|
 |-------------------|---------------------|

|
| H H H H
 
 |-------------------|---------------------|
 |-/10s======8s======|==6--------5---------|
 |-------------------|---------------------|
 |-------------------|---------------------|
 |-------------------|---------------------|
 |-------------------|---------------------|

W +H. +E [D7]S S
| | | | |
[/] [/] [/] [/] [/] 
[E] [E] [E] [E] [E] [E] [E] [E] [E] [E] [E] [E] [E] [E] [E] [E]  
 
 |----------------0-----|-------------0--------|
 |----------7---------7-|---------7--------7---|
 |-----7----------------|-----7----------------|
 |--0-----0----0----0---|--0----0---0----0-----|
 |----------------------|----------------------|
 |----------------------|----------------------|

|
| E Q. +H W
 
 |----------------------|----------------------|
 |-(5)s3------(3)-------|----------------------|
 |----------------------|----------------------|
 |----------------------|----------------------|
 |----------------------|----------------------|
 |----------------------|----------------------|

|
| Gtr IV
| <
 
 | PM-----------|

| +E Q. +H E E E E E E E E
 
 |----------------------|----------------------|
 |-(5)s3------(3)-------|----------------------|
 |----------------------|----------------------|
 |----------------------|-----------7-7--7-7---|
 |----------------------|-----5-5-5-5-5--5-5---|
 |----------------------|----------------------|

W +H. +E [Bb/D]S S
| | | | |
[/] [/] [/] [/] [/] 
[E] [E] [E] [E] [E] [E] [E] [E] [E] [E] [E] [E] [E] [E] [E] [E]  
 
 |------------0-----|--------------0---------|
 |--------7-------7-|----------7--------7----|
 |----5-------------|------5-----------------|
 |--0---0---0---0---|---0----0---0----0------|
 |------------------|------------------------|
 |------------------|------------------------|

|
| W +H. Q
 
 |------------------|-----------------5s=====|
 |-10---------------|-(10)-------------------|
 |------------------|------------------------|
 |------------------|------------------------|
 |------------------|------------------------|
 |------------------|------------------------|

|
| <
 
 | PM-----------|

| W E E E E E E E E
 
 |------------------|------------------------|
 |------------------|------------------------|
 |------------------|------------------------|
 |------------------|------------7-7--7-7----|
 |------------------|------5-5-5-5-5--5-5----|
 |------------------|------------------------|

W +H. +E S S
| | | | |
[/] [/] [/] [/] [/] 
[E] [E] [E] [E] [E] [E] [E] [E] [E] [E] [E] [E] [E] [E] [E] [E]  
 
 |-------------0-----|--------------0--------|
 |--------6--------6-|---------6---------6---|
 |----3--------------|-----3-----------------|
 |--0---0----0---0---|--0----0----0----0-----|
 |-------------------|-----------------------|
 |-------------------|-----------------------|

|
| H H H H
 
 |-17-------15-------|-13--------12----------|
 |-------------------|-----------------------|
 |-------------------|-----------------------|
 |-------------------|-----------------------|
 |-------------------|-----------------------|
 |-------------------|-----------------------|

|
| <
 
 | PM------------|

| W E E E E E E E E
 
 |-------------------|-----------------------|
 |-------------------|-----------------------|
 |-------------------|-----------------------|
 |-------------------|------------7-7--7-7---|
 |-------------------|-----5-5-5--5-5--5-5---|
 |-------------------|-----------------------|

W W
|
[/]  
[E] [E] [E] [E] [E] [E] [E] [E] [E] [E] [E] [E] [E] [E] [E] [E]  
 
 |------------0-----|-------------0-----||
 |--------6-------6-|--------6--------6-||
 |----3-------------|----5--------------||
 |--0---0---0---0---|--0---0----0---0---||
 |------------------|-------------------||
 |------------------|-------------------||

|
| W H H
 
 |------------------|-------------------||
 |-15---------------|-13-------11-------||
 |------------------|-------------------||
 |------------------|-------------------||
 |------------------|-------------------||
 |------------------|-------------------||

|
| E E E E E E E E E E E E E E E E
 
 |------------------|-------------------||
 |------------------|-------------------||
 |------------------|-------------------||
 |--7-7-7-7-7-7-7-7-|--5-5-5-5--3-3-3-3-||
 |--5-5-5-5-5-5-5-5-|--3-3-3-3--1-1-1-1-||
 |------------------|-------------------||

Chorus
[Am]Gtr V[G5] [Fmaj7+11]
W +H H Q H.
| | | |
[/] [/] [/] [/] 
Gtrs I, IV
[B] [+E] [E] [E] [a] [E] [+E] [E] [E] [E] [+E] [E] [E] [E] [B] [+E] [E] [E] [a] [E]  
 
 |------------------|---------------------|--------------------|
 |------------------|---------------------|--------------------|
 |------------------|---------------------|--------------------|
 |-2----(2)---------|---------------------|--------------------|
 |-0----(0)-2-3-3s5-|-(5)-3-2-------2---3-|-3------(3)-2-3-3s5-|
 |------------------|---------3-(3)---3-1-|-1------(1)---------|

+H [G5] E Q E E [Am]Q. +H
| | | | | |
[/] [/] [/] [/] [/] [/]  
[+E] [E] [E] [E] [+E] [E] [E] [E] [B] [+E] [E] [E] [a] [E]  
 
 |---------------------|-----------------------|
 |---------------------|-----------------------|
 |---------------------|-----------------------|
 |-------------------2-|-2------(2)------------|
 |-(5)-3-2-------2---0-|-0------(0)-2-3-3s5----|
 |---------3-(3)---3---|-----------------------|

+H [G5] H Q [Fmaj7+11]H.
| | |
[/] [/] [/]  
[+E] [E] [E] [E] [+E] [E] [E] [E] [B] [+E] [E] [E] [E]  
 
 |---------------------|------------------|
 |---------------------|------------------|
 |---------------------|------------------|
 |---------------------|------------------|
 |-(5)-3-2-------2---3-|-3------(3)-2-3S7-|
 |---------3-(3)---3-1-|-1------(1)-------|

+H [G5] E E Q Q [Am]H.
| | | |
[/] [/] [/] [/]  
[+E] [E] [E] [E] [+E] [E] [E] [E] [B] [+E] [E] [E] [a] [E]  
 
 |---------------------|---------------------|
 |---------------------|---------------------|
 |---------------------|---------------------|
 |---------------------|-2------(2)----------|
 |-(7)-5-3-5-(5)-3-2---|-0------(0)-2-3-3s5--|
 |-------------------3-|---------------------|

+H [G5] E E E E E [Fmaj7+11]Q. +H [E]W [Fmaj7+11]H. +E [E]E +W
| | | | | | | | | | |
[/] [/] [/] [/] [/] [/] [/] [/] [/] [/] [/] 
+E E E E +E E E E +W W H. +E E +W
 
 |---------------------|----------------|----------|---------------|--------|
 |---------------------|----------------|----------|---------------|--------|
 |---------------------|----------------|----------|---------------|--------|
 |---------------------|----------------|----------|---------------|--------|
 |-(5)-3-2-------2---3-|-(3)------------|-2--------|-3-------(3)-2-|-(2)----|
 |---------3-(3)---3-1-|-(1)------------|-0--------|-1-------(1)-0-|-(0)----|

[Asus4] H. +E S S Q +E S S Q +E [A]S S W +W
| | | | | | | | | | | | | |
[/] [/] [/] [/] [/] [/] [/] [/] [/] [/] [/] [/] [/] [/] 
Gtr I
H. +E S S H. +E S S W W
 
 |------------------|-------------------------|-------------------|---------||
 |------------------|-------------------------|-------------------|---------||
 |------------------|-------------------------|-------------------|---------||
 |--2-------(2)-2-2-|--2--------------(2)-2-2-|--2----------------|---2-----||
 |--0-------(0)-0-0-|--0--------------(0)-0-0-|--0----------------|---0-----||
 |------------------|-------------------------|-------------------|---------||

|
| Gtr IV
| ~~~~~~~~~~~~~~~~~
| W H H Q. E +H +W
 
 |------------------|-------------------------|-------/17-(17)----|-(17)----||
 |-15---------------|-12----------15----------|-14----------------|---------||
 |------------------|-------------------------|-------------------|---------||
 |------------------|-------------------------|-------------------|---------||
 |------------------|-------------------------|-------------------|---------||
 |------------------|-------------------------|-------------------|---------||

Bridge
Gtr II
E. S +Q +S E. E E E. S +E E +S E. Q
 
 |----------------------|-0--------------------|
 |-7--7-(7)--(7)-7--7---|-7--7-(7)-7-(7)-7--7--|
 |-7--7-(7)--(7)-7--7---|-7--------7-(7)----7--|
 |-0--------------------|-0--------------------|
 |----------------------|----------------------|
 |----------------------|----------------------|

E. S +E E +S E. Q E. S +E E +S E. Q
 
 |-0--------------------|-0---------------------|
 |-7--7-(7)-7-(7)-7--7--|-7--7-(7)-7-(7)-7--7---|
 |-5--------5-(5)-5--5--|-5--------5-(5)-5--5---|
 |-0--------------------|-0---------------------|
 |----------------------|-----------------------|
 |----------------------|-----------------------|

D5open(type 2)
Gtrs I, IV
W W H Q E S S
| |
[/] [/] 
E. S +E E +S E. Q E. S +E E +S E. Q E. S +E E +S E. Q
 
 |-0--------------------|-0--------------------|-0-----------------------|
 |-6--6-(6)-6-(6)-6--6--|-6--6-(6)-6-(6)-6--6--|-6--6-(6)-6-(6)-6--6-----|
 |-3--3-(3)-3-(3)-3--3--|-3--3-(3)-3-(3)-3--3--|-5--5-(5)-5-(5)-5--5-----|
 |-0--------------------|-0--------------------|-0-----------------------|
 |----------------------|----------------------|-------------------------|
 |----------------------|----------------------|-------------------------|

Outro
W [D5/A]H. +E [C5]S S
| | | | |
[/] [/] [/] [/] [/] 
S S S S S S S S S S S S E S S S S S S S S S S S S S S E S S
 
 ||--2-x-x-2-x-x-2-x-x-2-x-x-2-x-x-|-2--x-x-2-x-x-2-x-x-2-x-x--2-x-x--|
 ||o-3-x-x-3-x-x-3-x-x-3-x-x-3-x-x-|-3--x-x-3-x-x-3-x-x-3-x-x--3-x-x--|
 ||--2-x-x-2-x-x-2-x-x-2-x-x-2-x-x-|-2--x-x-2-x-x-2-x-x-2-x-x--2-x-x--|
 ||--------------------------------|----------------------------------|
 ||o-------------------------------|----------------------------------|
 ||--------------------------------|----------------------------------|

W H. +E [Bb5]S S
| | | | |
[/] [/] [/] [/] [/] 
S S S S S S S S S S S S E S S S S S S S S S S S S S S E S S
 
 |-2-x-x-2-x-x-2-x-x-2-x-x-2-x-x-|-2--x-x-2-x-x-2-x-x-2-x-x--2-x-x-|
 |-1-x-x-1-x-x-1-x-x-1-x-x-1-x-x-|-1--x-x-1-x-x-1-x-x-1-x-x--1-x-x-|
 |-2-x-x-2-x-x-2-x-x-2-x-x-2-x-x-|-2--x-x-2-x-x-2-x-x-2-x-x--2-x-x-|
 |-------------------------------|---------------------------------|
 |-------------------------------|---------------------------------|
 |-------------------------------|---------------------------------|

W H. +E S S
| | | | |
[/] [/] [/] [/] [/] 
S S S S S S S S S S S S E E S S S S S S S S S S S S E E
 
 |-----------------------------|---------------------------------|
 |-6-x-x-6-x-x-6-x-x-6-x-x-6---|-6--x-x-6-x-x-6-x-x-6-x-x--6-----|
 |-3-x-x-3-x-x-3-x-x-3-x-x-3---|-3--x-x-3-x-x-3-x-x-3-x-x--3-----|
 |-----------------------------|---------------------------------|
 |-----------------------------|---------------------------------|
 |-----------------------------|---------------------------------|

C5 D5open(type 2)
W H. +E S S
| | | | |
[/] [/] [/] [/] [/] 
S S S S S S S S S S S S E E S S S S S S S S S S S S E E
 
 |-----------------------------|----------------------------------||
 |-6-x-x-6-x-x-6-x-x-6-x-x-6---|-6--x-x-6-x-x-6-x-x-6-x-x--6-----o||
 |-3-x-x-3-x-x-3-x-x-3-x-x-3---|-5--x-x-5-x-x-5-x-x-5-x-x--5------||
 |-----------------------------|----------------------------------||
 |-----------------------------|---------------------------------o||
 |-----------------------------|----------------------------------||

D5open(type 2) D5/A C5
W H. +E S S
| | | | |
[/] [/] [/] [/] [/] 
S S S S S S S S S S S S E S S S S S S S S S S S S S S E S S
 
 |-2-x-x-2-x-x-2-x-x-2-x-x-2-x-x-|-2--x-x-2-x-x-2-x-x-2-x-x--2-x-x-|
 |-3-x-x-3-x-x-3-x-x-3-x-x-3-x-x-|-3--x-x-3-x-x-3-x-x-3-x-x--3-x-x-|
 |-2-x-x-2-x-x-2-x-x-2-x-x-2-x-x-|-2--x-x-2-x-x-2-x-x-2-x-x--2-x-x-|
 |-------------------------------|---------------------------------|
 |-------------------------------|---------------------------------|
 |-------------------------------|---------------------------------|

W H. +E [Bb5]S S
| | | | |
[/] [/] [/] [/] [/] 
S S S S S S S S S S S S E S S S S S S S S S S S S S S E S S
 
 |-2-x-x-2-x-x-2-x-x-2-x-x-2-x-x-|-2--x-x-2-x-x-2-x-x-2-x-x--2-x-x-|
 |-1-x-x-1-x-x-1-x-x-1-x-x-1-x-x-|-1--x-x-1-x-x-1-x-x-1-x-x--1-x-x-|
 |-2-x-x-2-x-x-2-x-x-2-x-x-2-x-x-|-2--x-x-2-x-x-2-x-x-2-x-x--2-x-x-|
 |-------------------------------|---------------------------------|
 |-------------------------------|---------------------------------|
 |-------------------------------|---------------------------------|

W H. +E S S
| | | | |
[/] [/] [/] [/] [/] 
S S S S S S S S S S S S E E S S S S S S S S S S S S E E
 
 |-------------------------------|----------------------------------|
 |--6-x-x-6-x-x-6-x--x-6-x-x-6---|--6--x-x-6-x-x-6-x-x-6-x-x--6-----|
 |--3-x-x-3-x-x-3-x--x-3-x-x-3---|--3--x-x-3-x-x-3-x-x-3-x-x--3-----|
 |-------------------------------|----------------------------------|
 |-------------------------------|----------------------------------|
 |-------------------------------|----------------------------------|

|
| Gtr I
| H H W
 
 |-------------------------------|----------------------------------|
 |-18---------------17-----------|-15-------------------------------|
 |-------------------------------|----------------------------------|
 |-------------------------------|----------------------------------|
 |-------------------------------|----------------------------------|
 |-------------------------------|----------------------------------|

C5 D5open(type 2)
W H. +E S S
| | | | |
[/] [/] [/] [/] [/] 
Gtr II
S S S S S S S S S S S S E E S S S S S S S S S S S S E E
 
 |----------------------------------|-------------------------------------|
 |--6----x-x-6-x-x-6-x--x-6-x-x-6---|--6----x-x-6-x-x-6-x--x-6-x-x--6-----|
 |--3----x-x-3-x-x-3-x--x-3-x-x-3---|--5----x-x-5-x-x-5-x--x-5-x-x--5-----|
 |----------------------------------|-------------------------------------|
 |----------------------------------|-------------------------------------|
 |----------------------------------|-------------------------------------|

|
| ~~~~~~~~~~~~~~~~~~~~
| H H H Q Q
 
 |----------------------------------|---------------------17-------20-----|
 |-20b22---------------20-----------|-20b22-------------------------------|
 |----------------------------------|-------------------------------------|
 |----------------------------------|-------------------------------------|
 |----------------------------------|-------------------------------------|
 |----------------------------------|-------------------------------------|

|
| Gtr VI
| TP TP TP TP
| H H H H
 
 |----------------------------------|-------------------------------------|
 |--3-------------------5-----------|--6-------------------8--------------|
 |----------------------------------|-------------------------------------|
 |----------------------------------|-------------------------------------|
 |----------------------------------|-------------------------------------|
 |----------------------------------|-------------------------------------|

W
|
[/]  
S S S S S S S S S S S S E S S
 
 |--2----x-x-2-x-x-2-x-x-2-x-x-2-x-x-|
 |--3----x-x-3-x-x-3-x-x-3-x-x-3-x-x-|
 |--2----x-x-2-x-x-2-x-x-2-x-x-2-x-x-|
 |-----------------------------------|
 |-----------------------------------|
 |-----------------------------------|

|
| ~~~~~
| W
 
 |-20b22-----------------------------|
 |-----------------------------------|
 |-----------------------------------|
 |-----------------------------------|
 |-----------------------------------|
 |-----------------------------------|

|
| TP
| W
 
 |-14--------------------------------|
 |-15--------------------------------|
 |-14--------------------------------|
 |-----------------------------------|
 |-----------------------------------|
 |-----------------------------------|

[D5/A] H. +E [C5]S S
| | | |
[/] [/] [/] [/] 
S S S S S S S S S S S S E S S
 
 |--2-----x-x-------2-x-x-------2-x--x----2-x-------x--2-------x-x--|
 |--3-----x-x-------3-x-x-------3-x--x----3-x-------x--3-------x-x--|
 |--2-----x-x-------2-x-x-------2-x--x----2-x-------x--2-------x-x--|
 |------------------------------------------------------------------|
 |------------------------------------------------------------------|
 |------------------------------------------------------------------|

|
 
 | |----------3-----------| |---------3----------|

| Q Q Q Q Q Q
 
 |-20pb22-----20b22-------20b22-----20b22-----20b22------20b22------|
 |------------------------------------------------------------------|
 |------------------------------------------------------------------|
 |------------------------------------------------------------------|
 |------------------------------------------------------------------|
 |------------------------------------------------------------------|

|
| TP
| H. Q
 
 |-14---------------------------------------------------------------|
 |-15-------------------------------------------------10------------|
 |-14-------------------------------------------------11------------|
 |------------------------------------------------------------------|
 |------------------------------------------------------------------|
 |------------------------------------------------------------------|

W
|
[/]  
S S S S S S S S S S S S E S S
 
 |--2----x-x-------2-x-x-------2-x--x----2-x-------x-2-------x-x-|
 |--1----x-x-------1-x-x-------1-x--x----1-x-------x-1-------x-x-|
 |--2----x-x-------2-x-x-------2-x--x----2-x-------x-2-------x-x-|
 |---------------------------------------------------------------|
 |---------------------------------------------------------------|
 |---------------------------------------------------------------|

|
 
 | |----------3----------| |---------3---------|

| Q Q Q Q Q Q
 
 |-20b22-----20b22-------20b22-----20b22-----20b22-----20b22-----|
 |---------------------------------------------------------------|
 |---------------------------------------------------------------|
 |---------------------------------------------------------------|
 |---------------------------------------------------------------|
 |---------------------------------------------------------------|

|
| TP
| W
 
 |-12------------------------------------------------------------|
 |-13------------------------------------------------------------|
 |-12------------------------------------------------------------|
 |---------------------------------------------------------------|
 |---------------------------------------------------------------|
 |---------------------------------------------------------------|

H. +E [Bb5] S S
| | | |
[/] [/] [/] [/] 
S S S S S S S S S S S S E S S
 
 |--2----x-x-2--x--x---2---x--x----2-x-x--2--x--x--|
 |--1----x-x-1--x--x---1---x--x----1-x-x--1--x--x--|
 |--2----x-x-2--x--x---2---x--x----2-x-x--2--x--x--|
 |-------------------------------------------------|
 |-------------------------------------------------|
 |-------------------------------------------------|

|
| ~~~~~~ ~~~~~
| Q. S S Q. S S
 
 |-20b22r============(20)-17-----------------------|
 |---------------------------20b22----------20-18--|
 |-------------------------------------------------|
 |-------------------------------------------------|
 |-------------------------------------------------|
 |-------------------------------------------------|

|
| TP TP
| Q Q H
 
 |-12----------12\---------------------------------|
 |-13----------13\---------------------------------|
 |-12----------12\------------5--------------------|
 |----------------------------5--------------------|
 |-------------------------------------------------|
 |-------------------------------------------------|

W
|
[/]  
S S S S S S S S S S S S E E
 
 |---------------------------------|
 |--6----x-x-6-x-x-6-x-x-6-x-x-6---|
 |--3----x-x-3-x-x-3-x-x-3-x-x-3---|
 |---------------------------------|
 |---------------------------------|
 |---------------------------------|

|
| ~~~~~~~~~~~~~~~~~~~~~~~~~~~~~~~~
| W
 
 |---------------------------------|
 |-20b22---------------------------|
 |---------------------------------|
 |---------------------------------|
 |---------------------------------|
 |---------------------------------|

|
| TP
| W
 
 |---------------------------------|
 |---------------------------------|
 |--3------------------------------|
 |--3------------------------------|
 |--1------------------------------|
 |---------------------------------|

H. +E S S
| | | |
[/] [/] [/] [/] 
S S S S S S S S S S S S E E
 
 |----------------------------------------------|
 |---6--x--x----6-x-x-6-x---x--6---x--x--6------|
 |---3--x--x----3-x-x-3-x---x--3---x--x--3------|
 |----------------------------------------------|
 |----------------------------------------------|
 |----------------------------------------------|

|
|~~~~~~
| +E Q. +E E E E
 
 |----------------------------------------------|
 |-(20)---20b22r==========(20)---(20)---18-20---|
 |----------------------------------------------|
 |----------------------------------------------|
 |----------------------------------------------|
 |----------------------------------------------|

|
| TP
| W
 
 |----------------------------------------------|
 |----------------------------------------------|
 |---3------------------------------------------|
 |---3------------------------------------------|
 |---1------------------------------------------|
 |----------------------------------------------|

C5 D5open(type 2)
W H. +E S S
| | | | |
[/] [/] [/] [/] [/] 
S S S S S S S S S S S S E E S S S S S S S S S S S S E E
 
 |---------------------------------|----------------------------------|
 |--6----x-x-6-x-x-6-x-x-6-x-x-6---|--6--x-x-6-x-x-6-x-x-6-x-x--6-----|
 |--3----x-x-3-x-x-3-x-x-3-x-x-3---|--5--x-x-5-x-x-5-x-x-5-x-x--5-----|
 |---------------------------------|----------------------------------|
 |---------------------------------|----------------------------------|
 |---------------------------------|----------------------------------|

|
| W W
 
 |---------------------------------|----------------------------------|
 |-18b20r==========================|=17-------------------------------|
 |---------------------------------|----------------------------------|
 |---------------------------------|----------------------------------|
 |---------------------------------|----------------------------------|
 |---------------------------------|----------------------------------|

|
| TP TP
| W W
 
 |---------------------------------|-12-------------------------------|
 |---------------------------------|-13-------------------------------|
 |--3------------------------------|-12-------------------------------|
 |--3------------------------------|----------------------------------|
 |--1------------------------------|----------------------------------|
 |---------------------------------|----------------------------------|

W
|
[/]  
S S S S S S S S S S S S E S S
 
 |--2-x-x-2--x--x-2--x---x--2-x-x--2--x--x-|
 |--3-x-x-3--x--x-3--x---x--3-x-x--3--x--x-|
 |--2-x-x-2--x--x-2--x---x--2-x-x--2--x--x-|
 |-----------------------------------------|
 |-----------------------------------------|
 |-----------------------------------------|

|
| Q Q Q E S S
 
 |-14-------15----------14--------15----12-|
 |-----------------------------------15----|
 |-----------------------------------------|
 |-----------------------------------------|
 |-----------------------------------------|
 |-----------------------------------------|

|
| Q E. S +H
 
 |-----------------------------------------|
 |-19-------20------17-(17)----------------|
 |-----------------------------------------|
 |-----------------------------------------|
 |-----------------------------------------|
 |-----------------------------------------|

[D5/A] H. +E [C5] S S
| | | |
[/] [/] [/] [/] 
S S S S S S S S S S S S E S S
 
 |--2--x--x--2--x-x--2--x--x-2--x--x--2--x--x-*|
 |--3--x--x--3--x-x--3--x--x-3--x--x--3--x--x-*|
 |--2--x--x--2--x-x--2--x--x-2--x--x--2--x--x-*|
 |--------------------------------------------*|
 |--------------------------------------------*|
 |--------------------------------------------*|

|
| E S S E S S E S S E S S
 
 |-14-------14-15------15-14------14-15----15-*|
 |-------15---------15---------15-------15----*|
 |--------------------------------------------*|
 |--------------------------------------------*|
 |--------------------------------------------*|
 |--------------------------------------------*|

|
| W
 
 |--------------------------------------------*|
 |--------------------------------------------*|
 |--------------------------------------------*|
 |--------------------------------------------*|
 |--------------------------------------------*|
 |--------------------------------------------*|

Duration Legend
 
 ---------------
 W - whole; H - half; Q - quarter; E - 8th; S - 16th; T - 32nd; X - 64th; a - acciaccatura

+ - note tied to previous; . - note dotted; .. - note double dotted
Uncapitalized letters represent notes that are staccato (1/2 duration)
Irregular groupings are notated above the duration line
Duration letters will always appear directly above the note/fret number it represents the
duration for. Duration letters with no fret number below them represent rests. Multi-
bar rests are notated in the form Wxn, where n is the number of bars to rest for. Low
melody durations appear below the staff
Tablature Legend
 
 ----------------

h - hammer-on
p - pull-off
b - bend
pb - pre-bend
r - bend release (if no number after the r, then release immediately)
/\ - slide into or out of (from/to "nowhere")
s - legato slide
S - shift slide
- natural harmonic
(n) - artificial harmonic
n(n) - tapped harmonic
~ - vibrato
tr - trill
T - tap
TP - trem. picking
PM - palm muting
\n/ - tremolo bar dip; n = amount to dip
\n - tremolo bar down
n/ - tremolo bar up
/n\ - tremolo bar inverted dip
= - hold bend; also acts as connecting device for hammers/pulls
- volume swell (louder/softer)
x - on rhythm slash represents muted slash
o - on rhythm slash represents single note slash
Misc Legend
 
 -----------

| - bar
|| - double bar
||o - repeat start
o|| - repeat end
*| - double bar (ending)
: - bar (freetime)
$ - Segno
& - Coda
Tempo markers - = BPM(8/16=s8/s16), where s8 = swing 8ths, s16 = swing 16ths

Important: The song above is NOT stored on the Chordie server. The original song is hosted at www.guitaretab.com. Chordie works as a search engine and provides on-the-fly formatting. Chordie does not index songs against artists'/composers' will. To remove this song please click here.

Text color:
Chord color:
Chord grids: 
Font size:    
Page size: 

A Am Asus4 B Bb/D Bb5 C/G C5 D D5 D5/A D7 E G5
Rate #2 of 6 versions

Jango Player

Login - add to songbook

SHARE PAGE  




You need to log in to post comments