Guitar Tabs, Chords and Lyrics
Major upgrade!! After one year development the new version of Chordie is now online! Please give feedback.


A Secret Place  Megadeth

As recorded by Megadeth
(From the 1997 Album CRYPTIC WRITINGS)
Transcribed by Carl Culpepper and Steve Gorenberg
Words and Music by Dave Mustaine
[Eb5]1 1 1 x x x
[G5]5 5 5 x x x
[D5]x 5 7 x x x
G5(type 2)
5 5 x x x x
[Bb5]8 8 x x x x
[A5]7 7 x x x x
Gtr I (D A D G B E) - 'Untitled'
Gtr II (D A D G B E) - 'Untitled'
Gtr III (D A D G B E) - 'Untitled'
Gtr IV (D A D G B E) - 'Sitar'
Gtr V (D A D G B E) - 'Untitled'
Gtr VI (D A D G B E) - 'Untitled'
Intro
Moderately Fast Rock Q=130
[Eb5] [G5]  
[4/4] Gtr II
W W W W +W
| | |
[/] [/] [/] 
Gtr I Gtrs III, IV
PM--|
W W W W E E E E +E E E E
 
 |----------:----------:----------:----------||----------------------|
 |----------:----------:----------:----------||o--4-4-4-3-(3)--------|
 |----------:----------:----------:----------||---0-0-0-0-(0)-0-0-0--|
 |----------:-1s=======:=3s=======:=5--------||----------------------|
 |----------:-1s=======:=3s=======:=5--------||o---------------------|
 |----------:-1s=======:=3s=======:=5--------||----------------------|

+W +W
| |
[/] [/]  
PM--| PM PM
[E] [E] [E] [E] [+E] [E] [E] [E] [E] [E] [E] [E] [E] [E] [E] [E]  
 
 |--------------------|------------------|
 |--1-1-1-3-(3)-------|--4-4-4-3---6---6-|
 |--0-0-0-0-(0)-0-0-0-|--0-0-0-0-0-0-0-0-|
 |--------------------|------------------|
 |--------------------|------------------|
 |--------------------|------------------|

N.C.
+W W
|
[/]  
 
 PM----| PM--|

[E] [E] [E] [E] [E] [E] [E] [E] [E] [E] [E] [E] [+E] [E] [E] [E]  
 
 |--------------------|--------------------|
 |--6p=4--4-----------|-4-4-4-3-(3)--------|
 |--0-(0)-0-0-0-0-0-0-|-0-0-0-0-(0)-0-0-0--|
 |--------------------|--------------------|
 |--------------------|--------------------|
 |--------------------|--------------------|

1.
 
 PM--| PM PM PM----|

[E] [E] [E] [E] [+E] [E] [E] [E] [E] [E] [E] [E] [E] [E] [E] [E] [E] [E] [E] [E] [E] [E] [E] [E]  
 
 |-------------------|-----------------|--------------------||
 |-1-1-1-3-(3)-------|-4-4-4-3---6---6-|-6s=8--4-----------o||
 |-0-0-0-0-(0)-0-0-0-|-0-0-0-0-0-0-0-0-|-0-(0)-0-0-0-0-0-0--||
 |-------------------|-----------------|--------------------||
 |-------------------|-----------------|-------------------o||
 |-------------------|-----------------|--------------------||

2.
Gt[Bb]rs III, V[Bb] [C5] [G5] [F5] [Eb5]
E E E E E E E E E E Q +Q. E +H. E E +H. E E
 
 |---------------------|----------------|--------------|---------------|
 |-4-4-4-3---(3)---(3)-|----------------|--------------|---------------|
 |-0-0-0-0-0--3-----3--|-3-5-5--(5)-----|--------------|---------------|
 |------------3-----3--|-3-5-5--(5)---5-|-(5)--------3-|-(3)--------1--|
 |------------1-----1--|-1-3-3--(3)---5-|-(5)--------3-|-(3)--------1--|
 |---------------------|--------------5-|-(5)--------3-|-(3)--------1--|

[D5]  
 
 PM----------------------------------------------|

+H. E E +E E E E E E E E E E E E E E E E E E E E E E E E
 
 |--------------|-------------------|-----------------|------------------||
 |--------------|-------------------|-----------------|------------------||
 |--------------|-------------------|-----------------|------------------||
 |-(1)--------0-|-(0)---------------|-----------------|------------------||
 |-(1)--------0-|-(0)-0-0-0-0-0-0-0-|-0-0-0-0-0-0-0-0-|-0-0-0-0-0-0-0-0--||
 |-(1)--------0-|-(0)-0-0-0-0-0-0-0-|-0-0-0-0-0-0-0-0-|-0-0-0-0-0-0-0-0--||

|
| Gtr II
| W W W W
 
 |--------------|-------------------|-----------------|------------------||
 |--------------|-------------------|-----------------|------------------||
 |--------------|-------------------|-----------------|------------------||
 |--------------|-------------------|-1s==============|=3s===============||
 |--------------|-------------------|-1s==============|=3s===============||
 |--------------|-------------------|-1s==============|=3s===============||

Verse 1
N.C.
Gtrs III, IV
 
 PM--| PM--| PM PM PM----|

[E] [E] [E] [E] [+E] [E] [E] [E] [E] [E] [E] [E] [+E] [E] [E] [E] [E] [E] [E] [E] [E] [E] [E] [E] [E] [E] [E] [E] [E] [E] [E] [E]  
 
 |-------------------|-------------------|-----------------|--------------------|
 |-4-4-4-3-(3)-------|-1-1-1-3-(3)-------|-4-4-4-3---6---6-|-6p=4--4------------|
 |-0-0-0-0-(0)-0-0-0-|-0-0-0-0-(0)-0-0-0-|-0-0-0-0-0-0-0-0-|-0-(0)-0-0-0-0-0-0--|
 |-------------------|-------------------|-----------------|--------------------|
 |-------------------|-------------------|-----------------|--------------------|
 |-------------------|-------------------|-----------------|--------------------|

|
| W W W W
 
 |-------------------|-------------------|-----------------|--------------------|
 |-------------------|-------------------|-----------------|--------------------|
 |-------------------|-------------------|-----------------|--------------------|
 |-5-----------------|-------------------|-----------------|--------------------|
 |-5-----------------|-------------------|-----------------|--------------------|
 |-5-----------------|-------------------|-----------------|--------------------|

PM--| PM--|
[E] [E] [E] [E] [+E] [E] [E] [E] [E] [E] [E] [E] [+E] [E] [E] [E]  
 
 |-------------------|-------------------|
 |-4-4-4-3-(3)-------|-1-1-1-3-(3)-------|
 |-0-0-0-0-(0)-0-0-0-|-0-0-0-0-(0)-0-0-0-|
 |-------------------|-------------------|
 |-------------------|-------------------|
 |-------------------|-------------------|

|
| W W
 
 |-------------------|-------------------|
 |-------------------|-------------------|
 |-------------------|-------------------|
 |-------------------|-------------------|
 |-------------------|-------------------|
 |-------------------|-------------------|

PM PM PM----|
[E] [E] [E] [E] [E] [E] [E] [E] [E] [E] [E] [E] [E] [E] [E] [E]  
 
 |-----------------|-----------------------|
 |-4-4-4-3---6---6-|-6s=8----4-------------|
 |-0-0-0-0-0-0-0-0-|-0-(0)---0--0-0-0-0-0--|
 |-----------------|-----------------------|
 |-----------------|-----------------------|
 |-----------------|-----------------------|

|
| W Q H.
 
 |-----------------|-----------------------|
 |-----------------|-----------------------|
 |-----------------|-------/12\------------|
 |-----------------|-------/12\------------|
 |-----------------|-----------------------|
 |-----------------|-----------------------|
 PM--| PM--| PM PM PM----|

[E] [E] [E] [E] [+E] [E] [E] [E] [E] [E] [E] [E] [+E] [E] [E] [E] [E] [E] [E] [E] [E] [E] [E] [E] [E] [E] [E] [E] [E] [E] [E] [E]  
 
 |-------------------|-------------------|-----------------|--------------------|
 |-4-4-4-3-(3)-------|-1-1-1-3-(3)-------|-4-4-4-3---6---6-|-6p=4--4------------|
 |-0-0-0-0-(0)-0-0-0-|-0-0-0-0-(0)-0-0-0-|-0-0-0-0-0-0-0-0-|-0-(0)-0-0-0-0-0-0--|
 |-------------------|-------------------|-----------------|--------------------|
 |-------------------|-------------------|-----------------|--------------------|
 |-------------------|-------------------|-----------------|--------------------|

PM--| PM--|
[E] [E] [E] [E] [+E] [E] [E] [E] [E] [E] [E] [E] [+E] [E] [E] [E]  
 
 |-------------------|-------------------|
 |-4-4-4-3-(3)-------|-1-1-1-3-(3)-------|
 |-0-0-0-0-(0)-0-0-0-|-0-0-0-0-(0)-0-0-0-|
 |-------------------|-------------------|
 |-------------------|-------------------|
 |-------------------|-------------------|

|
| Gtr II
| W W
 
 |-------------------|-------------------|
 |-------------------|-------------------|
 |-------------------|-------------------|
 |-------------------|-------------------|
 |-------------------|-------------------|
 |-------------------|-------------------|

Gt[Bb]rs III, V[BbC5] [G5]
E E E E E E E E E E Q +Q. E
 
 |---------------------|--------------------|
 |-4-4-4-3---(3)---(3)-|--------------------|
 |-0-0-0-0-0--3-----3--|-3-5-5--(5)---------|
 |------------3-----3--|-3-5-5--(5)------5--|
 |------------1-----1--|-1-3-3--(3)------5--|
 |---------------------|-----------------5--|

|
| W H Q E E
 
 |---------------------|--------------------|
 |---------------------|--------------------|
 |---------------------|---------------/12--|
 |---------------------|---------------/12--|
 |---------------------|--------------------|
 |---------------------|--------------------|

+H. E [F5] E +H. E [Eb5]E +H. E [D5]E
 
 |-------------------|------------------|----------------|
 |-------------------|------------------|----------------|
 |-------------------|------------------|----------------|
 |--(5)------------3-|--(3)-----------1-|-(1)----------0-|
 |--(5)------------3-|--(3)-----------1-|-(1)----------0-|
 |--(5)------------3-|--(3)-----------1-|-(1)----------0-|

|
| +H. +E E +H. +E E +H. +E E
 
 |-------------------|------------------|----------------|
 |-------------------|------------------|----------------|
 |-(12)------(12)s10-|-(10)------(10)s8-|-(8)------(8)s7-|
 |-(12)------(12)s10-|-(10)------(10)s8-|-(8)------(8)s7-|
 |-------------------|------------------|----------------|
 |-------------------|------------------|----------------|

N.C.
 
 PM------------------------|

[+E] [E] [E] [E] [E] [E] [E] [E] [E] [E] [E] [E] [E] [E] [E] [E]  
 
 |-------------------|---------------------||
 |-------------------|---------------------||
 |-------------------|---------------------||
 |-(0)---------------|---------------3-5---||
 |-(0)-0-0-0-0-0-0-0-|--0--0-0-0-0-5-------||
 |-(0)-0-0-0-0-0-0-0-|--0--0-0-0-0-0-3-5---||

|
| ~~~~~~~~~~~~~~~~~~~~~~~
| +W +W
 
 |-------------------|---------------------||
 |-------------------|---------------------||
 |-(7)---------------|-(7)-----------------||
 |-(7)---------------|-(7)-----------------||
 |-------------------|---------------------||
 |-------------------|---------------------||

Chorus
N.C.
Gtrs III, V
[E] [E] [E] [E] [+E] [E] [E] [E] [+E] [E] [E] [E] [+E] [E] [E] [E]  
 
 |-------------------|---------------------|
 |-------------------|---------------------|
 |-----3-------------|-------3---------3-5-|
 |-5-----5-(5)---3-5-|-(5)-----5-(5)-5-----|
 |---5---------5-----|-----5---------------|
 |-------------------|---------------------|

|
| Gtr VI
| E E E E +E E E E +E E E E +E E E E
 
 |-------------------|---------------------|
 |-------------------|---------------------|
 |-------------------|---------------------|
 |-------------------|---------------------|
 |-----1-------------|-------1---------1-3-|
 |-5-0---5-(5)-0-3-5-|-(5)-0---5-(5)-5-----|

[+E] [E] [E] [E] [+E] [E] [E] [E] [+E] [E] [E] [E] [+E] [E] [E] [E]  
 
 |---------------------|----------------------|
 |-------4-------------|----------------------|
 |-(5)-----5-(5)-3-5-6-|-(6)---6-5-(5)--------|
 |-----5---------------|-----5-----------3-5--|
 |---------------------|---------------5------|
 |---------------------|----------------------|

|
| +E E E E +E E E E +E E E E +E E E E
 
 |---------------------|----------------------|
 |---------------------|----------------------|
 |---------------------|----------------------|
 |-------1-------------|----------------------|
 |-(3)-----3-(3)-1-3-4-|-(4)---4-3-(3)--------|
 |-----5---------------|-----5---------0-3-5--|

[+E] [E] [E] [E] [+E] [E] [E] [E] [+E] [E] [E] [E] [+E] [E] [E] [E]  
 
 |---------------------|---------------------|
 |---------------------|---------------------|
 |-------3-------------|-------3---------3-5-|
 |-(5)-----5-(5)---3-5-|-(5)-----5-(5)-5-----|
 |-----5---------5-----|-----5---------------|
 |---------------------|---------------------|

|
| +E E E E +E E E E +E E E E +E E E E
 
 |---------------------|---------------------|
 |---------------------|---------------------|
 |---------------------|---------------------|
 |---------------------|---------------------|
 |-------1-------------|-------1---------1-3-|
 |-(5)-0---5-(5)-0-3-5-|-(5)-0---5-(5)-5-----|

[+E] [E] [E] [E] [+E] [E] [E] [E] [+E] [E] [E] [E] [+E] [E] [E] [E]  
 
 |---------------------|----------------------|
 |-------4-------------|----------------------|
 |-(5)-----5-(5)-3-5-6-|-(6)---6-7-(7)--------|
 |-----5---------------|-----5-----------3-5--|
 |---------------------|---------------5------|
 |---------------------|----------------------|

|
| +E E E E +E E E E +E E E E +E E E E
 
 |---------------------|----------------------|
 |---------------------|----------------------|
 |---------------------|----------------------|
 |-------1-------------|----------------------|
 |-(3)-----3-(3)-1-3-4-|-(4)---4-5-(5)--------|
 |-----5---------------|-----5---------0-3-5--|

[+E] [E] [E] [E] [+E] [E] [E] [E] [+E] [E] [E] [E] [+E] [E] [E] [E]  
 
 |---------------------|---------------------|
 |---------------------|---------------------|
 |-------3-------------|-------3---------3-5-|
 |-(5)-----5-(5)---3-5-|-(5)-----5-(5)-5-----|
 |-----5---------5-----|-----5---------------|
 |---------------------|---------------------|

|
| +E E E E +E E E E +E E E E +E E E E
 
 |---------------------|---------------------|
 |---------------------|---------------------|
 |---------------------|---------------------|
 |---------------------|---------------------|
 |-------1-------------|-------1---------1-3-|
 |-(5)-0---5-(5)-0-3-5-|-(5)-0---5-(5)-5-----|

[+E] [E] [E] [E] [+E] [E] [E] [E] [+E] [E] [E] [E] [+E] [E] [E] [E]  
 
 |---------------------|----------------------|
 |-------4-------------|----------------------|
 |-(5)-----5-(5)-3-5-6-|-(6)---6-5-(5)--------|
 |-----5---------------|-----5-----------3-5--|
 |---------------------|---------------5------|
 |---------------------|----------------------|

|
| +E E E E +E E E E +E E E E +E E E E
 
 |---------------------|----------------------|
 |---------------------|----------------------|
 |---------------------|----------------------|
 |-------1-------------|----------------------|
 |-(3)-----3-(3)-1-3-4-|-(4)---4-3-(3)--------|
 |-----5---------------|-----5---------0-3-5--|

[+E] [E] [E] [E] [+E] [E] [E] [E] [+E] [E] [E] [E] [+E] [E] [E] [E]  
 
 |---------------------|---------------------|
 |---------------------|---------------------|
 |-------3-------------|-------3---------3-5-|
 |-(5)-----5-(5)---3-5-|-(5)-----5-(5)-5-----|
 |-----5---------5-----|-----5---------------|
 |---------------------|---------------------|

|
| +E E E E +E E E E +E E E E +E E E E
 
 |---------------------|---------------------|
 |---------------------|---------------------|
 |---------------------|---------------------|
 |---------------------|---------------------|
 |-------1-------------|-------1---------1-3-|
 |-(5)-0---5-(5)-0-3-5-|-(5)-0---5-(5)-5-----|

|
| Gtr II
| W W
 
 |---------------------|---------------------|
 |---------------------|---------------------|
 |---------------------|---------------------|
 |---------------------|---------------------|
 |---------------------|---------------------|
 |---------------------|---------------------|

[+E] [E] [E] [E] [+E] [E] [E] [E] [+E] [E] [E] [E] [+E] [E] [E] [E]  
 
 |---------------------|---------------------||
 |-------4-------------|---------------------||
 |-(5)-----5-(5)-3-5-6-|-(6)--6-7-(7)--------||
 |-----5---------------|----5-----------3-5--||
 |---------------------|--------------5------||
 |---------------------|---------------------||

|
| +E E E E +E E E E +E E E E +E E E E
 
 |---------------------|---------------------||
 |---------------------|---------------------||
 |---------------------|---------------------||
 |-------1-------------|---------------------||
 |-(3)-----3-(3)-1-3-4-|-(4)--4-5-(5)--------||
 |-----5---------------|----5---------0-3-5--||

|
| W W
 
 |---------------------|---------------------||
 |---------------------|---------------------||
 |---------------------|-10s=================||
 |---------------------|-10s=================||
 |---------------------|---------------------||
 |---------------------|---------------------||

Verse 2
N.C.
Gtrs III, IV
PM--| PM--|
[E] [E] [E] [E] [+E] [E] [E] [E] [E] [E] [E] [E] [+E] [E] [E] [E]  
 
 |--------------------|----------------------|
 |--4-4-4-3-(3)-------|---1--1-1-3-(3)-------|
 |--0-0-0-0-(0)-0-0-0-|---0--0-0-0-(0)-0-0-0-|
 |--------------------|----------------------|
 |--------------------|----------------------|
 |--------------------|----------------------|

|
| Gtr II
| W +W
 
 |--------------------|----------------------|
 |--------------------|----------------------|
 |-12-----------------|-(12)-----------------|
 |-12-----------------|-(12)-----------------|
 |--------------------|----------------------|
 |--------------------|----------------------|

PM PM PM----|
[E] [E] [E] [E] [E] [E] [E] [E] [E] [E] [E] [E] [E] [E] [E] [E]  
 
 |--------------------|--------------------|
 |---4--4-4-3---6---6-|-6p=4--4------------|
 |---0--0-0-0-0-0-0-0-|-0-(0)-0-0-0-0-0-0--|
 |--------------------|--------------------|
 |--------------------|--------------------|
 |--------------------|--------------------|

|
| +W W
 
 |--------------------|--------------------|
 |--------------------|--------------------|
 |-(12)---------------|--------------------|
 |-(12)---------------|--------------------|
 |--------------------|--------------------|
 |--------------------|--------------------|
 PM--| PM--| PM PM PM----|

[E] [E] [E] [E] [+E] [E] [E] [E] [E] [E] [E] [E] [+E] [E] [E] [E] [E] [E] [E] [E] [E] [E] [E] [E] [E] [E] [E] [E] [E] [E] [E] [E]  
 
 |-------------------|-------------------|-----------------|--------------------|
 |-4-4-4-3-(3)-------|-1-1-1-3-(3)-------|-4-4-4-3---6---6-|-6s=8--4------------|
 |-0-0-0-0-(0)-0-0-0-|-0-0-0-0-(0)-0-0-0-|-0-0-0-0-0-0-0-0-|-0-(0)-0-0-0-0-0-0--|
 |-------------------|-------------------|-----------------|--------------------|
 |-------------------|-------------------|-----------------|--------------------|
 |-------------------|-------------------|-----------------|--------------------|
 PM--| PM--| PM PM PM----|

[E] [E] [E] [E] [+E] [E] [E] [E] [E] [E] [E] [E] [+E] [E] [E] [E] [E] [E] [E] [E] [E] [E] [E] [E] [E] [E] [E] [E] [E] [E] [E] [E]  
 
 |-------------------|-------------------|-----------------|--------------------|
 |-4-4-4-3-(3)-------|-1-1-1-3-(3)-------|-4-4-4-3---6---6-|-6p=4--4------------|
 |-0-0-0-0-(0)-0-0-0-|-0-0-0-0-(0)-0-0-0-|-0-0-0-0-0-0-0-0-|-0-(0)-0-0-0-0-0-0--|
 |-------------------|-------------------|-----------------|--------------------|
 |-------------------|-------------------|-----------------|--------------------|
 |-------------------|-------------------|-----------------|--------------------|

PM--| PM--|
[E] [E] [E] [E] [+E] [E] [E] [E] [E] [E] [E] [E] [+E] [E] [E] [E]  
 
 |-------------------|-------------------|
 |-4-4-4-3-(3)-------|-1-1-1-3-(3)-------|
 |-0-0-0-0-(0)-0-0-0-|-0-0-0-0-(0)-0-0-0-|
 |-------------------|-------------------|
 |-------------------|-------------------|
 |-------------------|-------------------|

Gt[Bb]rs III, V[BbC5] [G5]
E E E E E E E E E E Q +Q. E
 
 |---------------------|-----------------||
 |-4-4-4-3---(3)---(3)-|-----------------||
 |-0-0-0-0-0--3-----3--|-3-5-5--(5)------||
 |------------3-----3--|-3-5-5--(5)------||
 |------------1-----1--|-1-3-3--(3)---5--||
 |---------------------|--------------5--||

Bridge
Gtrs III, V[F5] [C5] [Eb5]
+H. E E +H. E E +H. E E
 
 |--------------|--------------|--------------|
 |--------------|--------------|--------------|
 |--------------|--------------|--------------|
 |--------------|------------5-|-(5)--------8-|
 |-(5)--------3-|-(3)--------3-|-(3)--------6-|
 |-(5)--------3-|-(3)----------|--------------|

+Q E [D5]E E [Ab5]E E [G5]E +H. E [F5]E +H. E [Eb5]E +H. E [D5]E
 
 |------------------|--------------|--------------|---------------|
 |------------------|--------------|--------------|---------------|
 |------------------|--------------|--------------|---------------|
 |-(8)----7---------|--------------|--------------|---------------|
 |-(6)----5---6---5-|-(5)--------3-|-(3)--------1-|-(1)--------0--|
 |------------6---5-|-(5)--------3-|-(3)--------1-|-(1)--------0--|

[G5] [F5] [C5] [Eb5]  
 
 PM----------|

+E E E E E E E E +H. E E +H. E E +H. E E
 
 |-------------------|--------------|--------------|---------------|
 |-------------------|--------------|--------------|---------------|
 |-------------------|--------------|--------------|---------------|
 |-------------------|--------------|------------5-|-(5)--------8--|
 |-(0)-0-0-0-0-0-0-5-|-(5)--------3-|-(3)--------3-|-(3)--------6--|
 |-(0)-0-0-0-0-0-0-5-|-(5)--------3-|-(3)----------|---------------|

+Q E [D5]E E [Ab5]E E [G5]E +H. E [F5]E +H. E [Eb5]E +H. E [D5]E
 
 |------------------|--------------|--------------|---------------||
 |------------------|--------------|--------------|---------------||
 |------------------|--------------|--------------|---------------||
 |-(8)----7---------|--------------|------------8-|-(8)--------7--||
 |-(6)----5---6---5-|-(5)--------3-|-(3)--------6-|-(6)--------5--||
 |------------6---5-|-(5)--------3-|-(3)----------|---------------||

Guitar Solo
D5 N.C.
Gtr V
W W
|
[/]  
Gtr VI
 
 --------------| ~ PM----------| ~

S S S S S S E +E e Q S S S S S S E +E E a Q
 
 |-------------------------|---------------------------|
 |-------------------------|---------------------------|
 |-------------------------|---------------------------|
 |-------------3-(3)-------|-------------3-(3)---3h5---|
 |-5-5-5-5-5-5-------5-5---|-5-5-5-5-5-5-------x-------|
 |-------------------------|---------------------------|

|
| Gtr III
 
 | PM--| PM----|

| E E E E +E E E E E E E E +E E E E
 
 |-------------------------|---------------------------|
 |-------------------------|---------------------------|
 |-3---3---3---2-(2)-------|-0---0---0---2-(2)---------|
 |-0---0---0---0-(0)-0-0-0-|-0---0---0---0-(0)-0---0-0-|
 |-------------------------|---------------------------|
 |-------------------------|---------------------------|

W W
~
E. S +E E E. S +E E E E E E H
 
 |-----------------------------|-------------------|
 |-----------------------------|-------------------|
 |-----------------------------|-------------------|
 |-x----5b6-(5)-5-3----------3-|---------3---------|
 |---------------------5-(5)---|-3--0--3---5-------|
 |-----------------------------|-------------------|

|
| PM PM PM----|
| E E E E E E E E E E Q E E E E
 
 |-----------------------------|-------------------|
 |-----------------------------|-------------------|
 |-3--3------3--2----2-------5-|-5p=3--3-----------|
 |-0--0------0--0-0--0----0--0-|-0-(0)-0---0-0-0-0-|
 |-----------------------------|-------------------|
 |-----------------------------|-------------------|
 PM--------| ~ PM--------| ~

S S S S S S E +E e Q S S S S S S E +E e a Q
 
 |-------------------------|---------------------------|
 |-------------------------|---------------------------|
 |-------------------------|---------------------------|
 |-------------3-(3)-------|-------------3-(3)---3h5---|
 |-5-5-5-5-5-5-------5-5---|-5-5-5-5-5-5-------5-------|
 |-------------------------|---------------------------|

|
 
 | PM--| PM----|

| E E E E +E E E E E E E E +E E E E
 
 |-------------------------|---------------------------|
 |-------------------------|---------------------------|
 |-3---3---3---2-(2)-------|-0---0---0---2-(2)---------|
 |-0---0---0---0-(0)-0-0-0-|-0---0---0---0-(0)-0---0-0-|
 |-------------------------|---------------------------|
 |-------------------------|---------------------------|
 |-----3-----| |---3---|

Q Q Q Q Q Q
 
 |-------------------------------|
 |-------------------------------|
 |-------------5-------7---5-----|
 |-5b6---5b6-------7-------------|
 |-------------------------------|
 |-------------------------------|

|
| PM PM
| E E E E E E E E
 
 |-------------------------------|
 |-------------------------------|
 |-3---3-----3---2---3-------5---|
 |-0---0-----0---0-0-0---0---0---|
 |-------------------------------|
 |-------------------------------|
 |----3----| |--3--| |---3---| |---3---|

E E E E E E E E E E E E H Q. +S S
 
 |-------------------------------10----13---10-|-------------------------------------|
 |-----------------10----13-10------13---------|-13----------13---------(13)--13-----|
 |-10--------12-10----12-----------------------|-12b14-------12b14======(12)r-12b14==|
 |----12---------------------------------------|-------------------------------------|
 |---------------------------------------------|-------------------------------------|
 |---------------------------------------------|-------------------------------------|

|
 
 | PM--------------| PM--|

| E E Q E E E E E E E E +E E E E
 
 |---------------------------------------------|-------------------------------------|
 |---------------------------------------------|-------------------------------------|
 |--5h====7------3-----------------------------|--3----3-3-2-(2)---------------------|
 |--0----(0)-----0--------0----0-----0----0----|--0----0-0-0-(0)----0-0---0----------|
 |---------------------------------------------|-------------------------------------|
 |---------------------------------------------|-------------------------------------|

~~~~~ ~~
 
 |------3-------|

+Q Q Q H S S S S S S S S H
 
 |-------------------------------------|---------------------------------|
 |-(13)----13------13------13----------|---------------------------------|
 |-(12)r---12b14---12b14---12b14-------|-10h12p10p9-10p9-----------------|
 |-------------------------------------|-----------------12-10-12--------|
 |-------------------------------------|---------------------------------|
 |-------------------------------------|---------------------------------|

|
| PM--| PM PM
| E E E E +E E E E E E E E E E E E
 
 |-------------------------------------|---------------------------------|
 |-------------------------------------|---------------------------------|
 |---0---0-------0-------2-(2)---------|--3-----3----3----2-------3---5--|
 |---0---0-------0-------0-(0)---0-0-0-|--0-----0----0----0-----0-0-0-0--|
 |-------------------------------------|---------------------------------|
 |-------------------------------------|---------------------------------|

~~
S S S S S S S S H Q. E +Q Q
 
 |----------------------------------|-10--------10-----(10)----10-------|
 |----------------------------------|-13b15-----13b15==(13)r---13b15====|
 |----------------------------------|-----------------------------------|
 |-10h12p10-------------------------|-----------------------------------|
 |-----------12-10h12p10s8----------|-----------------------------------|
 |-------------------------12-------|-----------------------------------|

|
 
 | PM----| PM-------|

| E E Q E E E E E E E E +E E E E
 
 |----------------------------------|-----------------------------------|
 |----------------------------------|-----------------------------------|
 |--5p====3------3------------------|--3----3-3--2------(2)-------------|
 |--0----(0)-----0----------0-0-0-0-|--0----0-0--0------(0)--0--0-----0-|
 |----------------------------------|-----------------------------------|
 |----------------------------------|-----------------------------------|

+E Q E S S S S S S S S
 
 |-(10)--10------10----10h=15p10----10h15p10-----|
 |-(13)r-13b15---13b15-----------13----------13--|
 |-----------------------------------------------|
 |-----------------------------------------------|
 |-----------------------------------------------|
 |-----------------------------------------------|

|
 
 | PM---------|

| E E E E +E E E E
 
 |-----------------------------------------------|
 |-----------------------------------------------|
 |---0----0----0--2----(2)-----------------------|
 |---0----0----0--0----(0)-----0-----0-----0-----|
 |-----------------------------------------------|
 |-----------------------------------------------|

[Bb5]  
 
 |------6-------| |------6-------| |------6-------| |------6-------|

S S S S S S S S S S S S S S S S S S S S S S S S
 
 |-10h15p10----10h15p10----10h15p10----10h15p10----10h15p10----10h15p10----|
 |----------13----------13----------13----------13----------13----------13-|
 |-------------------------------------------------------------------------|
 |-------------------------------------------------------------------------|
 |-------------------------------------------------------------------------|
 |-------------------------------------------------------------------------|

|
| E E E E E E E E
 
 |-------------------------------------------------------------------------|
 |-------------------------------------------------------------------------|
 |--3--------3--------3--------2-------------------------------------------|
 |--0--------0--------0--------0-----------------3-----------------3-------|
 |-----------------------------------------------1-----------------1-------|
 |-------------------------------------------------------------------------|

[C5]  
 
 |------6-------| |-------6-------| |------6-------| |------6-------|

S S S S S S S S S S S S S S S S S S S S S S S S
 
 |-10h15p10----10h15p10-----10h15p10----10h15p10----10h15p10----10h15p10-----|
 |----------13-----------13----------13----------13----------13----------13--|
 |---------------------------------------------------------------------------|
 |---------------------------------------------------------------------------|
 |---------------------------------------------------------------------------|
 |---------------------------------------------------------------------------|

|
| E E H.
 
 |---------------------------------------------------------------------------|
 |---------------------------------------------------------------------------|
 |---------------------------------------------------------------------------|
 |--3--------5--------5------------------------------------------------------|
 |--1--------3--------3------------------------------------------------------|
 |---------------------------------------------------------------------------|
 |-------6-------| |------6-------| |------6-------| |------6-------|

S S S S S S S S S S S S S S S S S S S S S S S S
 
 |-10h=15p10----10h15p10----10h15p10----10h15p10----10h15p10----10h15p10----|
 |-----------13----------13----------13----------13----------13----------13-|
 |--------------------------------------------------------------------------|
 |--------------------------------------------------------------------------|
 |--------------------------------------------------------------------------|
 |--------------------------------------------------------------------------|

|
| +W
 
 |--------------------------------------------------------------------------|
 |--------------------------------------------------------------------------|
 |--------------------------------------------------------------------------|
 |-(5)----------------------------------------------------------------------|
 |-(3)----------------------------------------------------------------------|
 |--------------------------------------------------------------------------|
 |-------6-------| |------6-------| |------6-------| |------6-------|

S S S S S S S S S S S S S S S S S S S S S S S S
 
 |-10h=15p10----10h15p10----10h15p10----10h15p10----10h15p10----10h15p10-----||
 |-----------13----------13----------13----------13----------13----------13--||
 |---------------------------------------------------------------------------||
 |---------------------------------------------------------------------------||
 |---------------------------------------------------------------------------||
 |---------------------------------------------------------------------------||

|
| +W
 
 |---------------------------------------------------------------------------||
 |---------------------------------------------------------------------------||
 |---------------------------------------------------------------------------||
 |-(5)-----------------------------------------------------------------------||
 |-(3)-----------------------------------------------------------------------||
 |---------------------------------------------------------------------------||

Verse 3
N.C.
Gtrs III, IV
 
 PM--| PM--| PM PM PM----|

[E] [E] [E] [E] [+E] [E] [E] [E] [E] [E] [E] [E] [+E] [E] [E] [E] [E] [E] [E] [E] [E] [E] [E] [E] [E] [E] [E] [E] [E] [E] [E] [E]  
 
 |-------------------|-------------------|-----------------|--------------------|
 |-4-4-4-3-(3)-------|-1-1-1-3-(3)-------|-4-4-4-3---6---6-|-6p=4--4------------|
 |-0-0-0-0-(0)-0-0-0-|-0-0-0-0-(0)-0-0-0-|-0-0-0-0-0-0-0-0-|-0-(0)-0-0-0-0-0-0--|
 |-------------------|-------------------|-----------------|--------------------|
 |-------------------|-------------------|-----------------|--------------------|
 |-------------------|-------------------|-----------------|--------------------|

PM--| PM--|
[E] [E] [E] [E] [+E] [E] [E] [E] [E] [E] [E] [E] [+E] [E] [E] [E]  
 
 |--------------------|----------------------|
 |--4-4-4-3-(3)-------|---1--1-1-3-(3)-------|
 |--0-0-0-0-(0)-0-0-0-|---0--0-0-0-(0)-0-0-0-|
 |--------------------|----------------------|
 |--------------------|----------------------|
 |--------------------|----------------------|

|
| Gtr II
| < <
| ~~~~~~~~~~~~~~~~~~~~~~~~~~~~~~~~~~~~~~~~~~
| W +H H
 
 |--------------------|----------------------|
 |-20-----------------|-(20)-----------------|
 |--------------------|------------17--------|
 |--------------------|----------------------|
 |--------------------|----------------------|
 |--------------------|----------------------|

PM PM PM----|
[E] [E] [E] [E] [E] [E] [E] [E] [E] [E] [E] [E] [E] [E] [E] [E]  
 
 |---------------------|------------------------|
 |---4--4-4-3----6---6-|---6s===8--4------------|
 |---0--0-0-0--0-0-0-0-|---0---(0)-0-0-0-0-0-0--|
 |---------------------|------------------------|
 |---------------------|------------------------|
 |---------------------|------------------------|

|
| <
|~~~~~~ ~~~~~~~~~~~~~~~~
| +Q. E H +W
 
 |---------------------|------------------------|
 |---------------------|------------------------|
 |-(17)-------15-------|-(15)\------------------|
 |---------------------|------------------------|
 |---------------------|------------------------|
 |---------------------|------------------------|
 PM--| PM--| PM PM PM----|

[E] [E] [E] [E] [+E] [E] [E] [E] [E] [E] [E] [E] [+E] [E] [E] [E] [E] [E] [E] [E] [E] [E] [E] [E] [E] [E] [E] [E] [E] [E] [E] [E]  
 
 |-------------------|-------------------|-----------------|--------------------|
 |-4-4-4-3-(3)-------|-1-1-1-3-(3)-------|-4-4-4-3---6---6-|-6p=4--4------------|
 |-0-0-0-0-(0)-0-0-0-|-0-0-0-0-(0)-0-0-0-|-0-0-0-0-0-0-0-0-|-0-(0)-0-0-0-0-0-0--|
 |-------------------|-------------------|-----------------|--------------------|
 |-------------------|-------------------|-----------------|--------------------|
 |-------------------|-------------------|-----------------|--------------------|

PM--| PM--|
[E] [E] [E] [E] [+E] [E] [E] [E] [E] [E] [E] [E] [+E] [E] [E] [E]  
 
 |-------------------|-------------------|
 |-4-4-4-3-(3)-------|-1-1-1-3-(3)-------|
 |-0-0-0-0-(0)-0-0-0-|-0-0-0-0-(0)-0-0-0-|
 |-------------------|-------------------|
 |-------------------|-------------------|
 |-------------------|-------------------|

|
| Gtr II
| W W
 
 |-------------------|-------------------|
 |-------------------|-------------------|
 |-------------------|-------------------|
 |-------------------|-------------------|
 |-------------------|-------------------|
 |-------------------|-------------------|

Gt[Bb]rs III, V[BbC5] [G5]
E E E E E E E E E E Q +Q. E
 
 |---------------------|--------------------|
 |-4-4-4-3---(3)---(3)-|--------------------|
 |-0-0-0-0-0--3-----3--|-3-5-5--(5)---------|
 |------------3-----3--|-3-5-5--(5)------5--|
 |------------1-----1--|-1-3-3--(3)------5--|
 |---------------------|-----------------5--|

|
| W H Q E E
 
 |---------------------|--------------------|
 |---------------------|--------------------|
 |---------------------|---------------/12--|
 |---------------------|---------------/12--|
 |---------------------|--------------------|
 |---------------------|--------------------|

+H. E [F5] E +H. E [Eb5]E +H. E [D5]E
 
 |-------------------|------------------|----------------|
 |-------------------|------------------|----------------|
 |-------------------|------------------|----------------|
 |--(5)------------3-|--(3)-----------1-|-(1)----------0-|
 |--(5)------------3-|--(3)-----------1-|-(1)----------0-|
 |--(5)------------3-|--(3)-----------1-|-(1)----------0-|

|
| +H. +E E +H. +E E +H. +E E
 
 |-------------------|------------------|----------------|
 |-------------------|------------------|----------------|
 |-(12)------(12)s10-|-(10)------(10)s8-|-(8)------(8)s7-|
 |-(12)------(12)s10-|-(10)------(10)s8-|-(8)------(8)s7-|
 |-------------------|------------------|----------------|
 |-------------------|------------------|----------------|

N.C.
 
 PM------------------------|

[+E] [E] [E] [E] [E] [E] [E] [E] [E] [E] [E] [E] [E] [E] [E] [E]  
 
 |-------------------|---------------------||
 |-------------------|---------------------||
 |-------------------|---------------------||
 |-(0)---------------|---------------3-5---||
 |-(0)-0-0-0-0-0-0-0-|--0--0-0-0-0-5-------||
 |-(0)-0-0-0-0-0-0-0-|--0--0-0-0-0-0-3-5---||

|
| ~~~~~~~~~~~~~~~~~~~~~~~
| +W +W
 
 |-------------------|---------------------||
 |-------------------|---------------------||
 |-(7)---------------|-(7)-----------------||
 |-(7)---------------|-(7)-----------------||
 |-------------------|---------------------||
 |-------------------|---------------------||

Chorus
Gtrs III, V
[E] [E] [E] [E] [+E] [E] [E] [E] [+E] [E] [E] [E] [+E] [E] [E] [E]  
 
 |-------------------|---------------------|
 |-------------------|---------------------|
 |-----3-------------|-------3---------3-5-|
 |-5-----5-(5)---3-5-|-(5)-----5-(5)-5-----|
 |---5---------5-----|-----5---------------|
 |-------------------|---------------------|

|
| Gtr VI
| E E E E +E E E E +E E E E +E E E E
 
 |-------------------|---------------------|
 |-------------------|---------------------|
 |-------------------|---------------------|
 |-------------------|---------------------|
 |-----1-------------|-------1---------1-3-|
 |-5-0---5-(5)-0-3-5-|-(5)-0---5-(5)-5-----|

[+E] [E] [E] [E] [+E] [E] [E] [E] [+E] [E] [E] [E] [+E] [E] [E] [E]  
 
 |---------------------|----------------------|
 |-------4-------------|----------------------|
 |-(5)-----5-(5)-3-5-6-|-(6)---6-5-(5)--------|
 |-----5---------------|-----5-----------3-5--|
 |---------------------|---------------5------|
 |---------------------|----------------------|

|
| +E E E E +E E E E +E E E E +E E E E
 
 |---------------------|----------------------|
 |---------------------|----------------------|
 |---------------------|----------------------|
 |-------1-------------|----------------------|
 |-(3)-----3-(3)-1-3-4-|-(4)---4-3-(3)--------|
 |-----5---------------|-----5---------0-3-5--|

[+E] [E] [E] [E] [+E] [E] [E] [E] [+E] [E] [E] [E] [+E] [E] [E] [E]  
 
 |---------------------|---------------------|
 |---------------------|---------------------|
 |-------3-------------|-------3---------3-5-|
 |-(5)-----5-(5)---3-5-|-(5)-----5-(5)-5-----|
 |-----5---------5-----|-----5---------------|
 |---------------------|---------------------|

|
| +E E E E +E E E E +E E E E +E E E E
 
 |---------------------|---------------------|
 |---------------------|---------------------|
 |---------------------|---------------------|
 |---------------------|---------------------|
 |-------1-------------|-------1---------1-3-|
 |-(5)-0---5-(5)-0-3-5-|-(5)-0---5-(5)-5-----|

[+E] [E] [E] [E] [+E] [E] [E] [E] [+E] [E] [E] [E] [+E] [E] [E] [E]  
 
 |---------------------|----------------------|
 |-------4-------------|----------------------|
 |-(5)-----5-(5)-3-5-6-|-(6)---6-7-(7)--------|
 |-----5---------------|-----5-----------3-5--|
 |---------------------|---------------5------|
 |---------------------|----------------------|

|
| +E E E E +E E E E +E E E E +E E E E
 
 |---------------------|----------------------|
 |---------------------|----------------------|
 |---------------------|----------------------|
 |-------1-------------|----------------------|
 |-(3)-----3-(3)-1-3-4-|-(4)---4-5-(5)--------|
 |-----5---------------|-----5---------0-3-5--|

[+E] [E] [E] [E] [+E] [E] [E] [E] [+E] [E] [E] [E] [+E] [E] [E] [E]  
 
 |---------------------|---------------------|
 |---------------------|---------------------|
 |-------3-------------|-------3---------3-5-|
 |-(5)-----5-(5)---3-5-|-(5)-----5-(5)-5-----|
 |-----5---------5-----|-----5---------------|
 |---------------------|---------------------|

|
| +E E E E +E E E E +E E E E +E E E E
 
 |---------------------|---------------------|
 |---------------------|---------------------|
 |---------------------|---------------------|
 |---------------------|---------------------|
 |-------1-------------|-------1---------1-3-|
 |-(5)-0---5-(5)-0-3-5-|-(5)-0---5-(5)-5-----|

[+E] [E] [E] [E] [+E] [E] [E] [E] [+E] [E] [E] [E] [+E] [E] [E] [E]  
 
 |---------------------|----------------------|
 |-------4-------------|----------------------|
 |-(5)-----5-(5)-3-5-6-|-(6)---6-5-(5)--------|
 |-----5---------------|-----5-----------3-5--|
 |---------------------|---------------5------|
 |---------------------|----------------------|

|
| +E E E E +E E E E +E E E E +E E E E
 
 |---------------------|----------------------|
 |---------------------|----------------------|
 |---------------------|----------------------|
 |-------1-------------|----------------------|
 |-(3)-----3-(3)-1-3-4-|-(4)---4-3-(3)--------|
 |-----5---------------|-----5---------0-3-5--|

[+E] [E] [E] [E] [+E] [E] [E] [E] [+E] [E] [E] [E] [+E] [E] [E] [E]  
 
 |---------------------|---------------------|
 |---------------------|---------------------|
 |-------3-------------|-------3---------3-5-|
 |-(5)-----5-(5)---3-5-|-(5)-----5-(5)-5-----|
 |-----5---------5-----|-----5---------------|
 |---------------------|---------------------|

|
| +E E E E +E E E E +E E E E +E E E E
 
 |---------------------|---------------------|
 |---------------------|---------------------|
 |---------------------|---------------------|
 |---------------------|---------------------|
 |-------1-------------|-------1---------1-3-|
 |-(5)-0---5-(5)-0-3-5-|-(5)-0---5-(5)-5-----|

[+E] [E] [E] [E] [+E] [E] [E] [E] [+E] [E] [E] [E] [+E] [E] [E] [E]  
 
 |---------------------|----------------------|
 |-------4-------------|----------------------|
 |-(5)-----5-(5)-3-5-6-|-(6)---6-7-(7)--------|
 |-----5---------------|-----5-----------3-5--|
 |---------------------|---------------5------|
 |---------------------|----------------------|

|
| +E E E E +E E E E +E E E E +E E E E
 
 |---------------------|----------------------|
 |---------------------|----------------------|
 |---------------------|----------------------|
 |-------1-------------|----------------------|
 |-(3)-----3-(3)-1-3-4-|-(4)---4-5-(5)--------|
 |-----5---------------|-----5---------0-3-5--|

[+E] [E] [E] [E] [+E] [E] [E] [E] [+E] [E] [E] [E] [+E] [E] [E] [E]  
 
 |----------------------|----------------------|
 |----------------------|----------------------|
 |-------3--------------|--------3---------3-5-|
 |-(5)-----5--(5)---3-5-|--(5)-----5-(5)-5-----|
 |-----5----------5-----|------5---------------|
 |----------------------|----------------------|

|
| +E E E E +E E E E +E E E E +E E E E
 
 |----------------------|----------------------|
 |----------------------|----------------------|
 |----------------------|----------------------|
 |----------------------|----------------------|
 |-------1--------------|--------1---------1-3-|
 |-(5)-0---5--(5)-0-3-5-|--(5)-0---5-(5)-5-----|

|
| Gtr II
| ~~~~~~~~~~~~~~~~~~~~~~~~~~~~~~~~~~~~~~~~~~~~
| H H H H
 
 |----------------------|----------------------|
 |-18--------\17--------|-\15------------------|
 |----------------------|------------15--------|
 |----------------------|----------------------|
 |----------------------|----------------------|
 |----------------------|----------------------|

[+E] [E] [E] [E] [+E] [E] [E] [E] [+E] [E] [E] [E] [+E] [E] [E] [E]  
 
 |----------------------|-----------------------|
 |--------4-------------|-----------------------|
 |--(5)-----5-(5)-3-5-6-|--(6)---6-5-(5)--------|
 |------5---------------|------5-----------3-5--|
 |----------------------|----------------5------|
 |----------------------|-----------------------|

|
| +E E E E +E E E E +E E E E +E E E E
<br /

Important: The song above is NOT stored on the Chordie server. The original song is hosted at www.guitaretab.com. Chordie works as a search engine and provides on-the-fly formatting. Chordie does not index songs against artists'/composers' will. To remove this song please click here.

Text color:
Chord color:
Chord grids: 
Font size:    
Page size: 

A5 Ab5 Bb Bb5 C5 D5 E Eb5 F5 G5
Rate #1 of 1 versions

Login - add to songbook

SHARE PAGE  




You need to log in to post comments