Guitar Tabs, Chords and Lyrics
Server problems seems to be fixed. Chordie has been experiencing problems with songs disappearing. These issues now seems to be fixed, but still verifying the fix. If you find anything strange, please email admin@chordie.com.


Addicted to Chaos  Megadeth

As recorded by Megadeth
(From the 1994 Album YOUTHANASIA)
Transcribed by /\X/\M
Words and Music by Dave Mustaine
[B5]x 3 5 x x x
[Ab5]x 0 2 x x x
[Bb5]x 2 4 x x x
[E5]1 3 x x x x
[Gb5]3 5 x x x x
Gtr I (Eb Ab Db Gb Bb Eb) - 'Untitled'
Gtr II (Eb Ab Db Gb Bb Eb) - 'Untitled'
Gtr III (Eb Ab Db Gb Bb Eb) - 'Untitled'
Gtr IV (Eb Ab Db Gb Bb Eb) - 'Untitled'
Intro
Moderately Slow Rock Q=98
[4/4] Gtrs I, II
PM--| PM PM--| PM
Wx4 E E E E S S S S S S E E E E E S S S S S S E
 
 |------------|-----------------------|-----------------------|
 |------------|-----------------------|-----------------------|
 |------------|-----------------------|-----------------------|
 |------------|-5-------------------5-|-4-------------------5-|
 |------------|-7-----------5h7-------|-5-----------5h7-------|
 |------------|---0-0-0-5h7-------0---|---0-0-0-5h7-------0---|

PM--| PM PM--| PM
E E E E S S S S S S E E E E E S S S S S S E
 
 |-----------------------|-------------------------||
 |-----------------------|-------------------------||
 |-----------------------|-------------------------||
 |-5-------------------5-|-7-------------------5---||
 |-4-----------5h7-------|-5-----------5h7---------||
 |---0-0-0-5h7-------0---|---0-0-0-5h7-------0-----||

Verse
PM--| PM PM--| PM
E E E E S S S S S S E E E E E S S S S S S E
 
 ||------------------------|-----------------------|
 ||o-----------------------|-----------------------|
 ||------------------------|-----------------------|
 ||--5-------------------5-|-4-------------------5-|
 ||o-7-----------5h7-------|-5-----------5h7-------|
 ||----0-0-0-5h7-------0---|---0-0-0-5h7-------0---|

PM--| PM PM--| PM
E E E E S S S S S S E E E E E S S S S S S E
 
 |-----------------------|--------------------------|
 |-----------------------|--------------------------|
 |-----------------------|--------------------------|
 |-5-------------------5-|-7-------------------5----|
 |-4-----------5h7-------|-5-----------5h7----------|
 |---0-0-0-5h7-------0---|---0-0-0-5h7-------0------|

PM--| PM PM--| PM
E E E E S S S S S S E E E E E S S S S S S E
 
 |-----------------------|-----------------------|
 |-----------------------|-----------------------|
 |-----------------------|-----------------------|
 |-5-------------------5-|-4-------------------5-|
 |-7-----------5h7-------|-5-----------5h7-------|
 |---0-0-0-5h7-------0---|---0-0-0-5h7-------0---|

PM--| PM PM--| PM
E E E E S S S S S S E E E E E S S S S S S E
 
 |-----------------------|-----------------------|
 |-----------------------|-----------------------|
 |-----------------------|-----------------------|
 |-5-------------------5-|-7-------------------5-|
 |-4-----------5h7-------|-5-----------5h7-------|
 |---0-0-0-5h7-------0---|---0-0-0-5h7-------0---|

PM--| PM PM--| PM
E E E E S S S S S S E E E E E S S S S S S E
 
 |-----------------------|-----------------------|
 |-----------------------|-----------------------|
 |-----------------------|-----------------------|
 |-5-------------------5-|-4-------------------5-|
 |-7-----------5h7-------|-5-----------5h7-------|
 |---0-0-0-5h7-------0---|---0-0-0-5h7-------0---|

|
| Gtr III
| W W
 
 |-----------------------|-----------------------|
 |-8---------------------|-7---------------------|
 |-----------------------|-----------------------|
 |-5---------------------|-4---------------------|
 |-----------------------|-----------------------|
 |-----------------------|-----------------------|

PM--| PM PM--| PM
E E E E S S S S S S E E E E E S S S S S S E
 
 |-----------------------|-------------------------|
 |-----------------------|-------------------------|
 |-----------------------|-------------------------|
 |-5-------------------5-|--7--------------------5-|
 |-4-----------5h7-------|--5------------5h7-------|
 |---0-0-0-5h7-------0---|-----0-0-0-5h7-------0---|

|
| W +W
 
 |-----------------------|-------------------------|
 |-5---------------------|-(5)---------------------|
 |-----------------------|-------------------------|
 |-2---------------------|-(2)---------------------|
 |-----------------------|-------------------------|
 |-----------------------|-------------------------|

PM--| PM PM--| PM
E E E E S S S S S S E E E E E S S S S S S E
 
 |------------------------|------------------------|
 |------------------------|------------------------|
 |------------------------|------------------------|
 |--5-------------------5-|--4-------------------5-|
 |--7-----------5h7-------|--5-----------5h7-------|
 |----0-0-0-5h7-------0---|----0-0-0-5h7-------0---|

|
| W W
 
 |------------------------|------------------------|
 |-12---------------------|-10---------------------|
 |------------------------|------------------------|
 |--9---------------------|--7---------------------|
 |------------------------|------------------------|
 |------------------------|------------------------|

PM--| PM
E E E E S S S S S S E H Q Q
 
 |-----------------------|--------------||
 |-----------------------|--------------||
 |-----------------------|--------------||
 |-5-------------------5-|--5-----2--4--||
 |-4-----------5h7-------|--3-----0--2--||
 |---0-0-0-5h7-------0---|--------------||

|
| W +W
 
 |-----------------------|--------------||
 |-8---------------------|-(8)----------||
 |-----------------------|--------------||
 |-5---------------------|-(5)----------||
 |-----------------------|--------------||
 |-----------------------|--------------||

Pre-Chorus
$
Gtrs I, II
E. S +E E E. S +E E
 
 |---------------------------------------------------|
 |---------------------------------------------------|
 |-----4---------(4)-------7-(7)---------------------|
 |--------------------5-7------------------7---------|
 |--7--2---------(2)-------5-(5)---------------------|
 |--0-----------------3-2------------------2---------|

| E. S +E E E. S +E E
|
| Gtr IV
| ~~~~~
 
 | |-------3--------|

| Q a +H E +E +E
 
 |-22----22b24==(22)r--------22b24r(22)b24r==(22)b24-|
 |---------------------------------------------------|
 |---------------------------------------------------|
 |---------------------------------------------------|
 |---------------------------------------------------|
 |---------------------------------------------------|

E. S +E E E. S +E E E. S +E E E. S +E E E. S +E E Q Q
 
 |------------------------------------|-----------------------|-------------------|
 |------------------------------------|-----------------------|---------------8\--|
 |-------------4-(4)------5-(5)-------|----4-(4)------7-(7)---|----4-(4)------9\--|
 |---------5---------5----------4-----|----------5-7--------7-|-5--------5-2------|
 |-------------2-(2)---7--7-(7)-------|-7--2-(2)------5-(5)---|----2-(2)---7------|
 |---------3---------3-5--------3h5p3-|-0--------3-2--------2-|-3--------3--------|

| E. S +E E E. S +E S S S E. S +E E E. S +E E E. S +E E H
| |-3-|
|
| a +Q Q H W W
 
 |-22b24-(22)\------------------------|-----------------------|-------------------|
 |------------------------------------|-----------------------|-------------------|
 |------------------------------------|-----------------------|-------------------|
 |------------------------------------|-----------------------|-------------------|
 |------------------------------------|-----------------------|-------------------|
 |------------------------------------|-----------------------|-------------------|

Gtrs I, II
E. S +E E E. S +E E E. S +E E E. S +E E E. S +E E E. S +E E
 
 |-----------------------|---------------------------|-----------------------|
 |-----------------------|---------------------------|-----------------------|
 |----4-(4)------7-(7)---|----4-(4)------5-(5)-------|----4-(4)------7-(7)---|
 |----------5-7--------7-|-5--------5----------4-----|----------5-7--------7-|
 |-7--2-(2)------5-(5)---|----2-(2)---7--7-(7)-------|-7--2-(2)------5-(5)---|
 |-0--------3-2--------2-|-3--------3-5--------3h5p3-|-0--------3-2--------2-|

E. S +E E E. S +E E E. S +E E E. S +E S S S E. S +E E E. S +E E
|-3-|
To Coda
[C5]Gtr II[A5] [B5]
W H Q Q
| | | |
[/] [/] [/] [/] 
Gtr I
 
 PM----| PM----| PM----| PM--|

S S S S S S S S S S S S S S S S E E E E Q Q
 
 |---------------------------------|---------------||
 |---------------------------------|---------------||
 |---------------------------------|---------------||
 |-2-0-------2-0-------2-0---------|-5-------2--4--||
 |-----3-2-0-----3-2-0-----3-2-0---|-3-3-3-3-0--2--||
 |-------------------------------3-|---------------||

Chorus
[A5]Gtr II[F5] [G5]
H +Q. S S H Q. S S
| | | | | | | |
/ / x x / / x x
Gtr I
~~~ ~~~
E. S +E E E. S +E E E. S +E E E. S +E E
 
 |--------------------------------|--------------------------------|
 |--------------------------------|--------------------------------|
 |-------------7--6---------------|-------------5--4---------------|
 |-----5--(5)---------7--(7)--5---|-----3--(3)---------5--(5)--3---|
 |-0------------------------------|-0------------------------------|
 |--------------------------------|--------------------------------|

|
| Gtr III
| ~~~ ~~~
| E. S +E E E. S +E E E. S +E E E. S +E E
 
 |--------------------------------|--------------------------------|
 |--------------------------------|--------------------------------|
 |------------19-18---------------|------------17-16---------------|
 |----17-(17)--------19-(19)-17---|----15-(15)--------17-(17)-15---|
 |-0------------------------------|-0------------------------------|
 |--------------------------------|--------------------------------|

[A5]H +Q. S S [F5]H [G5] Q. S S
| | | | | | | |
/ / x x / / x x
~~~ ~~~
E. S +E E E. S +E E E. S +E E E. S +E E
 
 |--------------------------------|--------------------------------|
 |--------------------------------|--------------------------------|
 |-------------7--6---------------|-------------5--4---------------|
 |-----5--(5)---------7--(7)--5---|-----3--(3)---------5--(5)--3---|
 |-0------------------------------|-0------------------------------|
 |--------------------------------|--------------------------------|

|
| ~~~ ~~~
| E. S +E E E. S +E E E. S +E E E. S +E E
 
 |--------------------------------|--------------------------------|
 |--------------------------------|--------------------------------|
 |------------19-18---------------|------------17-16---------------|
 |----17-(17)--------19-(19)-17---|----15-(15)--------17-(17)-15---|
 |-0------------------------------|-0------------------------------|
 |--------------------------------|--------------------------------|

[A5]H +Q. S S [F5]H [G5] Q. S S
| | | | | | | |
/ / x x / / x x
~~~ ~~~
E. S +E E E. S +E E E. S +E E E. S +E E
 
 |--------------------------------|--------------------------------|
 |--------------------------------|--------------------------------|
 |-------------7--6---------------|-------------5--4---------------|
 |-----5--(5)---------7--(7)--5---|-----3--(3)---------5--(5)--3---|
 |-0------------------------------|-0------------------------------|
 |--------------------------------|--------------------------------|

|
| ~~~ ~~~
| E. S +E E E. S +E E E. S +E E E. S +E E
 
 |--------------------------------|--------------------------------|
 |--------------------------------|--------------------------------|
 |------------19-18---------------|------------17-16---------------|
 |----17-(17)--------19-(19)-17---|----15-(15)--------17-(17)-15---|
 |-0------------------------------|-0------------------------------|
 |--------------------------------|--------------------------------|

1.
W W W
~~~ ~~~ PM
E. S +E E E. S +E E E. S +E E E. S +E E E E E E S S S S S S E
 
 |------------------------------|-------------------------------|--------------------------|
 |------------------------------|-------------------------------|--------------------------|
 |-------------4--5---4--(4)----|-------------------------------|--------------------------|
 |-----2--(2)-----------------5-|--3---2--(2)-------------------|-----------------------5--|
 |-0----------------------------|--------------3--2-------------|---------------5h7--------|
 |------------------------------|---------------------3--(3)--1-|--7\-0-0-0-5h7-------0----|

|
| ~~~ ~~~
| E. S +E E E. S +E E E. S +E E E. S +E E Q Q H
 
 |------------------------------|-------------------------------|--------------------------|
 |------------------------------|-------------------------------|--------------------------|
 |------------16-17--16-(16)----|-------------------------------|--------------------------|
 |----14-(14)----------------17-|-15--14-(14)-------------------|--------------------------|
 |-0----------------------------|-------------15-14-------------|--------------------------|
 |------------------------------|--------------------15-(15)-13-|-15\----------------------|

Gtr IV
~~
H Q E. S E. S +E E E. S +E E
 
 |--------------------------|------------------------------------|
 |--------------------------|------------------------------------|
 |------------------------x-|-9----11-(11)-12-9-----11-(11)---12-|
 |--------------------------|------------------------------------|
 |--------------------------|------------------------------------|
 |--------------------------|------------------------------------|

|
| Gtrs I, II
 
 | PM--| PM PM--------| PM

| E E E E S S S S S S E E E E E S S S S S S E
 
 |--------------------------|------------------------------------|
 |--------------------------|------------------------------------|
 |--------------------------|------------------------------------|
 |-4--------------------5---|-5--------------------------------5-|
 |-5-----------5h7----------|-4-------------------5h=7-----------|
 |---0-0-0-5h7--------0-----|----0------0---0-5h7-----------0----|

~~~~
E +Q. +E S S S S S S
 
 |---------------------------------------------||
 |--------------------------------------------o||
 |-12b14==(12)-----(12)r---11-12-11------------||
 |----------------------------------12---------||
 |-------------------------------------12-14--o||
 |---------------------------------------------||

|
| PM---| PM
| E E E E S S S S S S E
 
 |---------------------------------------------||
 |--------------------------------------------o||
 |---------------------------------------------||
 |--7-----------------------------------5------||
 |--5-----------------------5h=7--------------o||
 |----------0--0-0---5h==7-----------0---------||

Guitar Solo
2.
Gtr IV
H S S S S S S S S H +Q +S S S S
 
 |-----------------------------------------||---------------------------------------|
 |-----------------------------------------||---------------------------------------|
 |-----------------------------------------||---------------------------------------|
 |--------------------------------------12-||-14-------------(14)-----(14)-15-14s12-|
 |----------------------------12--14-15----||---------------------------------------|
 |-------------------12-13-15--------------||---------------------------------------|

|
| Gtrs I, II
 
 | PM------| PM-------------|

| E. S +E E H S S S S S S E +E S S S S S S
 
 |-----------------------------------------||---------------------------------------|
 |-----------------------------------------||---------------------------------------|
 |-----------------------------------------||---------------------------------------|
 |--3---2--(2)-----------------------------||---------------------------------------|
 |--------------3--5-----------------------||--5h7-7-5-7-8-7--(7)-7-5---------------|
 |-----------------------------------------||---------------------------7---6--5--3-|

|
| Gtr III
| E. S +E E Q Q W
 
 |-----------------------------------------||---------------------------------------|
 |-----------------------------------------||---------------------------------------|
 |-----------------------------------------||---------------------------------------|
 |-15--14-(14)-----------------------------||---------------------------------------|
 |-------------15-17----------17\----------||---------------------------------------|
 |-----------------------------------------||---------------------------------------|

~~~~~~~~~~~~
 
 |----------3----------|

S E. +Q Q Q S. S. S
 
 |------------------------------------------------|
 |------------------------------------------------|
 |---------------------/14----13------------------|
 |-12s14------(14)----------------------15h18p15s=|
 |------------------------------------------------|
 |------------------------------------------------|

|
 
 | PM-------|

| S S S S S S E +E S S S E.
 
 |------------------------------------------------|
 |------------------------------------------------|
 |------------------------------------------------|
 |------------------------------------------------|
 |-----------------------------------5------------|
 |--3h=5--5-3---5--6-5--(5)-x----x-x-3------------|

|
| W
 
 |------------------------------------------------|
 |------------------------------------------------|
 |------------------------------------------------|
 |------------------------------------------------|
 |------------------------------------------------|
 |------------------------------------------------|

Gtr IV
~~~
 
 |-------3-------|

H. +S S T T T T H Q Q Q
 
 |--------------------------------------------|------------------------------------|
 |--------------------------------------------|------------------------------------|
 |--------------------------------------------|----------------/14----13--------14-|
 |-14---------------------(14)-15-14h15p14p12-|-14---------------------------------|
 |--------------------------------------------|------------------------------------|
 |--------------------------------------------|------------------------------------|

|
| Gtrs I, II
 
 | PM------| PM----------------| PM----|

| S S S S S S E +E S S S S S S S S S S S S E +E S S S E.
 
 |--------------------------------------------|------------------------------------|
 |--------------------------------------------|------------------------------------|
 |--------------------------------------------|------------------------------------|
 |--------------------------------------------|------------------------------------|
 |--5h7-7-5-7-8-7-(7)-7-5---------------------|------------------------------5-----|
 |--------------------------7---6--5-----3----|--3h5-5-3-5-6-5--(5)-x----x-x-3-----|

~~~~~~~~~~~~~~~~~~~~~~~
 
 |-------3-------|

a +Q +E +E H +S S S S Q Q Q Q
 
 |----------------------------------------------|---------------------------------------------|
 |----------------------------------------------|---------------------------------------------|
 |-14b16==(14)------(14)r==(14)-----------------|----------------------/14----13--------14----|
 |------------------------------14--------------|-(14)h15p14s12s14----------------------------|
 |----------------------------------------------|---------------------------------------------|
 |----------------------------------------------|---------------------------------------------|

|
 
 | PM---------| PM--------| PM------|

| S S S S S S E +E S S S S S S S S S S S S E +E S S S E.
 
 |----------------------------------------------|---------------------------------------------|
 |----------------------------------------------|---------------------------------------------|
 |----------------------------------------------|---------------------------------------------|
 |----------------------------------------------|---------------------------------------------|
 |----------5h7-7-5---7--8---7--(7)-7-5---------|------------------------------------5--------|
 |--------------------------------------7-6-5-3-|---3h==5--5--3--5-6-5--(5)-x----x-x-3--------|

~~
a +Q H a a +S +S E
 
 |-----------------------------------------------------------|
 |-------------------------------------14b15==(14)r(14)------|
 |-14b16==(14)------19-------------14r------------------16---|
 |-----------------------------------------------------------|
 |-----------------------------------------------------------|
 |-----------------------------------------------------------|

|
 
 | PM-------| PM--------------------------|

| S S S S S S E +E S S S S S S
 
 |-----------------------------------------------------------|
 |-----------------------------------------------------------|
 |-----------------------------------------------------------|
 |-----------------------------------------------------------|
 |----------5h7-7-5--7-8-7-(7)-7-5---------------------------|
 |----------------------------------------------7----6---5-3-|

~~~~~~~~~
S +S +S S S E. E S S E S S
 
 |----------------------------------------------------||
 |-14b15==(14)r(14)----14-----------------------------||
 |------------------16----12----12--------------------||
 |----------------------------------14p12-14----12-14-||
 |----------------------------------------------------||
 |----------------------------------------------------||

|
 
 | PM-------|

| S S S S S S E +E S S S E.
 
 |----------------------------------------------------||
 |----------------------------------------------------||
 |----------------------------------------------------||
 |----------------------------------------------------||
 |-------------------------------------------5--------||
 |--3h======5----5---3--5--6--5-(5)--x--x--x-3--------||

~~~~~~~~~~ ~~~~~
 
 |---3---|

S E. Q S +S S S +E S S S
 
 |-------------------------------------------------14---------|
 |----------------------------------17b19==(17)r------17---14-|
 |------------14------16b18r(16)-14---------------------------|
 |-14s16------------------------------------------------------|
 |------------------------------------------------------------|
 |------------------------------------------------------------|

|
 
 | PM--------| PM---------------------|

| S S S S S S E +E S S S S S S
 
 |------------------------------------------------------------|
 |------------------------------------------------------------|
 |------------------------------------------------------------|
 |------------------------------------------------------------|
 |--7h=9--9-7--9-10-9-(9)---------9--7------------------------|
 |-------------------------------------------9---8--7----5----|
 |---------3---------| |---3---|

E S +S +E S S S T T T T a +Q Q
 
 |------------------------------14---------17-14-------17b19==(17)b20======17r-----|
 |-17b19---17b19r(17)-(17)b19------17---14-------17-14-----------------------------|
 |---------------------------------------------------------------------------------|
 |---------------------------------------------------------------------------------|
 |---------------------------------------------------------------------------------|
 |---------------------------------------------------------------------------------|

|
 
 | PM-----------------|

| S S S S S S E +E S S S E.
 
 |---------------------------------------------------------------------------------|
 |---------------------------------------------------------------------------------|
 |---------------------------------------------------------------------------------|
 |---------------------------------------------------------------------------------|
 |-----------------------------------------------------------------------------7---|
 |--5h===7---------7----------5--7----8-----7------------------(7)-----x-x--x--5---|
 |--------------3--------------| |---3----| |--3---|

S +S +E S S S S S T T T T S S S T T T T T T T T S T T
 
 |-17b19r(17)b19====(17)r---14-------------------------------------------14-------17p14-------------------|
 |-------------------------------17-14-------14--------------------14-17----17-14-------17p14-17b19-17p14-|
 |-------------------------------------17-------16-16-14----14--16----------------------------------------|
 |-------------------------------------------------------16-----------------------------------------------|
 |--------------------------------------------------------------------------------------------------------|
 |--------------------------------------------------------------------------------------------------------|

|
 
 | PM--------------------| PM---------------------------|

| S S S S S S E +E S S S S S S
 
 |--------------------------------------------------------------------------------------------------------|
 |--------------------------------------------------------------------------------------------------------|
 |--------------------------------------------------------------------------------------------------------|
 |--------------------------------------------------------------------------------------------------------|
 |--7h============9-------9----7-----9----10-----9----------(9)--------9-----7----------------------------|
 |---------------------------------------------------------------------------------9-----8-----7-----5----|

D.S.
Coda
T T T T T T T T T T T T T T T T T T T T T T T T T T T T T T T T
 
 |-17p14-------17p14-------17p14----------------17h19h=21p19p17h19p17----17-19h21p19p17h19p17----22b24-||
 |-------17p14-------17p14-------17s19-17h19h21-----------------------21----------------------21-------||
 |-----------------------------------------------------------------------------------------------------||
 |-----------------------------------------------------------------------------------------------------||
 |-----------------------------------------------------------------------------------------------------||
 |-----------------------------------------------------------------------------------------------------||

|
 
 | PM---------------|

| S S S S S S E +E S S S E.
 
 |-----------------------------------------------------------------------------------------------------||
 |-----------------------------------------------------------------------------------------------------||
 |-----------------------------------------------------------------------------------------------------||
 |-----------------------------------------------------------------------------------------------------||
 |---------------------------------------------------------------------------------7-------------------||
 |--5h====7-----7-----5-----7-----8-----7----------(7)-----------x-----x-----x-----5-------------------||

Chorus
&
[A5]Gtr II[F5] [G5]
H +Q. S S H Q. S S
| | | | | | | |
/ / x x / / x x
Gtr I
~~~ ~~~
E. S +E E E. S +E E E. S +E E E. S +E E
 
 ||---------------------------------|--------------------------------|
 ||o--------------------------------|--------------------------------|
 ||--------------7--6---------------|-------------5--4---------------|
 ||------5--(5)---------7--(7)--5---|-----3--(3)---------5--(5)--3---|
 ||o-0------------------------------|-0------------------------------|
 ||---------------------------------|--------------------------------|

|
| Gtr III
| ~~~ ~~~
| E. S +E E E. S +E E E. S +E E E. S +E E
 
 ||---------------------------------|--------------------------------|
 ||o--------------------------------|--------------------------------|
 ||-------------19-18---------------|------------17-16---------------|
 ||-----17-(17)--------19-(19)-17---|----15-(15)--------17-(17)-15---|
 ||o-0------------------------------|-0------------------------------|
 ||---------------------------------|--------------------------------|

[A5]H +Q. S S [F5]H [G5] Q. S S
| | | | | | | |
/ / x x / / x x
~~~ ~~~
E. S +E E E. S +E E E. S +E E E. S +E E
 
 |--------------------------------|-------------------------------|
 |--------------------------------|-------------------------------|
 |-------------7--6---------------|-------------5--4--------------|
 |-----5--(5)---------7--(7)--5---|-----3--(3)---------5--(5)--3--|
 |-0------------------------------|-0-----------------------------|
 |--------------------------------|-------------------------------|

|
| ~~~ ~~~
| E. S +E E E. S +E E E. S +E E E. S +E E
 
 |--------------------------------|-------------------------------|
 |--------------------------------|-------------------------------|
 |------------19-18---------------|------------17-16--------------|
 |----17-(17)--------19-(19)-17---|----15-(15)--------17-(17)-15--|
 |-0------------------------------|-0-----------------------------|
 |--------------------------------|-------------------------------|

[A5]H +Q. S S [F5]H [G5] Q. S S
| | | | | | | |
/ / x x / / x x
~~~ ~~~
E. S +E E E. S +E E E. S +E E E. S +E E
 
 |--------------------------------|--------------------------------|
 |--------------------------------|--------------------------------|
 |-------------7--6---------------|-------------5--4---------------|
 |-----5--(5)---------7--(7)--5---|-----3--(3)---------5--(5)--3---|
 |-0------------------------------|-0------------------------------|
 |--------------------------------|--------------------------------|

|
| ~~~ ~~~
| E. S +E E E. S +E E E. S +E E E. S +E E
 
 |--------------------------------|--------------------------------|
 |--------------------------------|--------------------------------|
 |------------19-18---------------|------------17-16---------------|
 |----17-(17)--------19-(19)-17---|----15-(15)--------17-(17)-15---|
 |-0------------------------------|-0------------------------------|
 |--------------------------------|--------------------------------|

1.
W W
~~~ ~~~
E. S +E E E. S +E E E. S +E E E. S +E E
 
 |------------------------------|--------------------------------||
 |------------------------------|-------------------------------o||
 |-------------4--5---4--(4)----|--------------5--------------5--||
 |-----2--(2)-----------------5-|------3--(3)---------4--(4)-----||
 |-0----------------------------|--0--------------0-------------o||
 |------------------------------|--------------------------------||

|
| ~~~ ~~~
| E. S +E E E. S +E E E. S +E E E. S +E E
 
 |------------------------------|--------------------------------||
 |------------------------------|-------------------------------o||
 |------------16-17--16-(16)----|--------------------------------||
 |----14-(14)----------------17-|-15--14-(14)--------------------||
 |-0----------------------------|-------------15-14-------------o||
 |------------------------------|--------------------15-(15)-13--||

2.
~~~ ~~~
E. S +E E E. S +E E E. S +E E E. S +E E
 
 |------------------------------|-------------------------------||
 |------------------------------|-------------------------------||
 |-------------4--5---4--(4)----|-------------------------------||
 |-----2--(2)-----------------5-|--3---2--(2)-------------------||
 |-0----------------------------|--------------3--2-------------||
 |------------------------------|---------------------3--(3)--1-||

|
| ~~~ ~~~
| E. S +E E E. S +E E E. S +E E E. S +E E
 
 |------------------------------|-------------------------------||
 |------------------------------|-------------------------------||
 |------------16-17--16-(16)----|-------------------------------||
 |----14-(14)----------------17-|-15--14-(14)-------------------||
 |-0----------------------------|-------------15-14-------------||
 |------------------------------|--------------------15-(15)-13-||

Outro
Gtr I
PM| ~~ PM| PM| ~ PM|
E E Q E E S S E E E Q E E S S E
 
 ||--------------------|------------------|
 ||o-------------------|------------------|
 ||--------------------|------------------|
 ||------------------5-|------------7p5---|
 ||o-----7-------5h7---|-----5----------7-|
 ||--0-0-----0-0-------|-0-0----0-0-------|

|
| Gtr II
| PM| ~ PM| PM| ~ PM|
| E E E E E E S S E E E Q E E S S E
 
 ||--------------------|------------------|
 ||o-------------------|------------------|
 ||------------------4-|------------5-4---|
 ||------4h5-----4h5---|-----7----------5-|
 ||o-------------------|------------------|
 ||--0-0-----0-0-------|-0-0----0-0-------|

PM| ~~ PM| PM| ~ PM|
E E Q E E S S E E E Q E E S S E 4x
 
 |-------------------|--------------------||
 |-------------------|-------------------o||
 |-------------------|--------------------||
 |-----------------5-|------------7p5-----||
 |-----4-------5h7---|-----3----------7--o||
 |-0-0-----0-0-------|-0-0----0-0---------||

|
| PM| ~ PM| PM| ~ PM|
| E E E E E E S S E E E Q E E S S E 4x
 
 |-------------------|--------------------||
 |-------------------|-------------------o||
 |-----------------4-|-----5------5-4-----||
 |-----4h5-----4h5---|----------------5---||
 |-------------------|-------------------o||
 |-0-0-----0-0-------|-0-0----0-0---------||

Duration Legend
 
 ---------------
 W - whole; H - half; Q - quarter; E - 8th; S - 16th; T - 32nd; X - 64th; a - acciaccatura

+ - note tied to previous; . - note dotted; .. - note double dotted
Uncapitalized letters represent notes that are staccato (1/2 duration)
Irregular groupings are notated above the duration line
Duration letters will always appear directly above the note/fret number it represents the
duration for. Duration letters with no fret number below them represent rests. Multi-
bar rests are notated in the form Wxn, where n is the number of bars to rest for. Low
melody durations appear below the staff
Tablature Legend
 
 ----------------

h - hammer-on
p - pull-off
b - bend
pb - pre-bend
r - bend release (if no number after the r, then release immediately)
/\ - slide into or out of (from/to "nowhere")
s - legato slide
S - shift slide
- natural harmonic
(n) - artificial harmonic
n(n) - tapped harmonic
~ - vibrato
tr - trill
T - tap
TP - trem. picking
PM - palm muting
\n/ - tremolo bar dip; n = amount to dip
\n - tremolo bar down
n/ - tremolo bar up
/n\ - tremolo bar inverted dip
= - hold bend; also acts as connecting device for hammers/pulls
- volume swell (louder/softer)
x - on rhythm slash represents muted slash
o - on rhythm slash represents single note slash
Misc Legend
 
 -----------

| - bar
|| - double bar
||o - repeat start
o|| - repeat end
*| - double bar (ending)
: - bar (freetime)
$ - Segno
& - Coda
Tempo markers - = BPM(8/16=s8/s16), where s8 = swing 8ths, s16 = swing 16ths

Important: The song above is NOT stored on the Chordie server. The original song is hosted at www.guitaretab.com. Chordie works as a search engine and provides on-the-fly formatting. Chordie does not index songs against artists'/composers' will. To remove this song please click here.

Text color:
Chord color:
Chord grids: 
Font size:    
Page size: 

A5 Ab5 B5 Bb5 C5 E5 F5 G5 Gb5
Rate #1 of 3 versions

Login - add to songbook

SHARE PAGE  




You need to log in to post comments