Guitar Tabs, Chords and Lyrics
Major upgrade!! After one year development the new version of Chordie is now online! Please give feedback.


Wake Up Dead  Megadeth

Wake Up Dead
Megadeth
Guitar 1 (Dave Mustaine)
H Q E S S E. S E E H H. E S S
 
 E||-----------------------|-----------------------|----------------------|
 B||-----------------------|-----------------------|----------------------|
 G||-----------------------|-----------------------|----------------------|
 D||-----------------------|-----------2--L--------|--L------------L------|
 A||-------------------4-4-|--4---2-4--0--L--------|--L------------L--4-4-|
 E||-------------------2-2-|--2---0-2--------------|------------------2-2-|

E. S E E H H. E S S E. S E E H
 
 -----------------------|----------------------|-----------------------|
 -----------------------|----------------------|-----------------------|
 -----------------------|----------------------|-----------------------|
 -----------5--L--------|--L------------L------|-----------7--L--------|
 --4---2-4--3--L--------|--L------------L--4-4-|--4---2-4--5--L--------|
 --2---0-2--------------|------------------2-2-|--2---0-2--------------|

H. E S S E. S E E Q. S S E. S E E Q. S S
 
 ----------------------|-------------------------|-------------------------|
 ----------------------|-------------------------|-------------------------|
 ----------------------|-----------4--L----------|-----------5--L----------|
 --L------------L------|-----------2--L----------|-----------3--L----------|
 --L------------L--4-4-|--4---2-4------------4-4-|--4---2-4------------4-4-|
 ------------------2-2-|--2---0-2------------2-2-|--2---0-2------------2-2-|

E. S E E H H. E S S E. S E E H
 
 -----------------------|----------------------|-----------------------|
 -----------------------|----------------------|-----------------------|
 -----------------------|----------------------|-----------------------|
 -----------2--L--------|--L------------L------|-----------5--L--------|
 --4---2-4--0--L--------|--L------------L--4-4-|--4---2-4--3--L--------|
 --2---0-2--------------|------------------2-2-|--2---0-2--------------|

H. E S S E. S E E H H. E S S
 
 ----------------------|-----------------------|----------------------|
 ----------------------|-----------------------|----------------------|
 ----------------------|-----------------------|----------------------|
 --L------------L------|-----------7--L--------|--L------------L------|
 --L------------L--4-4-|--4---2-4--5--L--------|--L------------L--4-4-|
 ------------------2-2-|--2---0-2--------------|------------------2-2-|

E. S E E Q. S S E. S E E Q. E
 
 -------------------------|------------------------|
 -------------------------|------------------------|
 -----------4--L----------|-----------5--L---------|
 -----------2--L----------|-----------3--L---------|
 --4---2-4------------4-4-|--4---2-4---------------|
 --2---0-2------------2-2-|--2---0-2---------------|

Guitar Solo 1
Q E E H W
 
 ----------------------------------|-------------------|
 ----------------------------------|-------------------|
 --4b------------L--4pbr--L--------|--L----------------|
 ----------------------------------|-------------------|
 ----------------------------------|-------------------|
 ----------------------------------|-------------------|

|-3-|
Q E E E S S S E S S S S S S S S S S S S S S S S S S
 
 ------------------2-----------------|----------------------------------|
 --------------------5-2-------------|----------------------------------|
 --4b----L--4b--L--------4br--(4)p-2-|--4-2---2-------------------------|
 ------------------------------------|------4---4-2-----4-2-----------2-|
 ------------------------------------|--------------4-2-----4-2-4-2-4---|
 ------------------------------------|----------------------------------|

|-3-|
H. E E S S S S S S E S S S S S S S S S H. E. S
 
 ---------------5--5--|--9-7-5----------------------------|---------------------|
 ---------------------|--------9-7--------7---------------|---------------------|
 ---------------------|------------6-9--9---9-6-9-6-------|---------------------|
 --4------------------|-----------------------------9-7-6-|--L------------L---6-|
 ---------------------|-----------------------------------|---------------------|
 ---------------------|-----------------------------------|---------------------|

S E. H Q Q. E H H. Q
 
 -----------------------|-----------------------|--------------------|
 -----------------------|-----------------------|--------------------|
 -----------------------|---------4br--L--------|--L-----------------|
 --6h-7---L--------9----|--4--------------------|---------------0----|
 -----------------------|-----------------------|--------------------|
 -----------------------|-----------------------|--------------------|

E Q H S S
 
 -------------------------|
 ----------------------14-|
 -------------------------|
 --4--7----11-------------|
 -------------------------|
 -------------------------|
 |---3---| 

S S S S S S S S S S S S S S S S. T
 
 ------------------------------------------14h-17p-14----17-|
 --17p-14-14-14-19p-14-17p-14-14-14-17p-14------------------|
 -----------------------------------------------------------|
 -----------------------------------------------------------|
 -----------------------------------------------------------|
 -----------------------------------------------------------|

H Q. S S S S E S S S S S S S S S S S S
 
 --19b--------19b------L----|--19-17-----17-------17-19-17----19-17----19-17-|
 ------------------------19-|--------19-----19-19----------19-------19-------|
 ---------------------------|------------------------------------------------|
 ---------------------------|------------------------------------------------|
 ---------------------------|------------------------------------------------|
 ---------------------------|------------------------------------------------|
 |--3--| |--3--| |--3--| |--3--| |--3--| |--3--| |--3--| |--3--| 

S S S S S S S S S S S S S S S S S S S S S S S S
 
 --------19-17-------------19-17-------------19-17-------------19-17-------|
 --17-19-------19-19-17-19-------19-19-17-19-------19-19-17-19-------19-19-|
 --------------------------------------------------------------------------|
 --------------------------------------------------------------------------|
 --------------------------------------------------------------------------|
 --------------------------------------------------------------------------|
 |--3--| |--3--| |--3--| |--3--| |--3--| |--3--| |--3--| |--3--| 

S S S S S S S S S S S S S S S S S S S S S S S S
 
 --------19-17-------------19-17-------------19-17-------------19-17-------|
 --17-19-------19-19-17-19-------19-19-17-19-------19-19-17-19-------19-19-|
 --------------------------------------------------------------------------|
 --------------------------------------------------------------------------|
 --------------------------------------------------------------------------|
 --------------------------------------------------------------------------|

W E E E E E E E E
 
 ---------------------|--------------------------------|
 --17-----------------|--------------------------------|
 --16b----------------|--------------------------------|
 ---------------------|--------------------------------|
 ---------------------|--9--10------9----------11--12--|
 ---------------------|---------12-----10--12---9--10--|

[E] [E] [E] [E] [E] [E] [E] [E] [E] [E] [E] [E] [E] [E] [E] [E]  
 
 --------------------------------|--------------------------------|
 --------------------------------|--------------------------------|
 --------------------------------|--------------------------------|
 --12--11----------------12--11--|--------------------------------|
 --10---9-----11--12-----10---9--|--9--10------9----------11--12--|
 --------------9--10-------------|---------12-----10--12---9--10--|

[E] [E] [E] [E] [E] [E] [E] [E] [E] [E] [E] [E] [E] [E] [E] [E]  
 
 --------------------------------|--------------------------------|
 --------------------------------|--------------------------------|
 --------------------------------|--------------------------------|
 --12--11----------------12--11--|--------------------------------|
 --10---9-----11--12-----10---9--|--9--10------9----------11--12--|
 --------------9--10-------------|---------12-----10--12---9--10--|

[E] [E] [E] [E] [E] [E] [E] [E] [E] [E] [E] [E] [E] [E] [E] [E]  
 
 --------------------------------|--------------------------------|
 --------------------------------|--------------------------------|
 --------------------------------|--------------------------------|
 --12--11----------------12--11--|--------------------------------|
 --10---9-----11--12-----10---9--|--9--10------9----------11--12--|
 --------------9--10-------------|---------12-----10--12---9--10--|

[E] [E] [E] [E] [E] [E] [E] [E] [E] [E] [E] [E] [E] [E] [E] [E] [E] [E] [E] [E]  
 
 ----------------------------|--------------------------|--------------|
 ----------------------------|--------------------------|--------------|
 ----------------------------|--------------------------|--------7-----|
 --9--10--x--x--x--x---------|--------------------------|--------5-----|
 --7---8--x--x--x--x--10--9--|--8--------7--------8-----|--7-----------|
 ----------------------8--7--|--6--0--0--5--0--0--6--0--|--5--0-----0--|

[E] [E] [E] [E] [E] [E] [E] [E] [E] [E] [E] [E] [E] [E] [E] [E]  
 
 --------------------------|---------------------------|
 --------------------------|---------------------------|
 --------------------7-----|---------------------------|
 --------------------5-----|---------------------------|
 --8--------7--------------|--------------------10--9--|
 --6--0--0--5--0--0-----0--|--0--0--0--0--0--0---8--7--|

[E] [E] [E] [E] [E] [E] [E] [E] [E] [E] [E] [E] [E] [E] [E] [E] [E] [E] [E] [E]  
 
 --------------------------|--------------|--------------------------|
 --------------------------|--------------|--------------------------|
 --------------------------|--------7-----|--------------------7-----|
 --------------------------|--------5-----|--------------------5-----|
 --8--------7--------8-----|--7-----------|--8--------7--------------|
 --6--0--0--5--0--0--6--0--|--5--0-----0--|--6--0--0--5--0--0-----0--|

[E] [E] [E] [E] [E] [E] [E] [E] [E] [E] [E] [E] [E] [E] [E] [E] [E] [E] [E] [E]  
 
 ---------------------------|--------------------------|--------------|
 ---------------------------|--------------------------|--------------|
 ---------------------------|--------------------------|--------7-----|
 ---------------------------|--------------------------|--------5-----|
 --------------------10--9--|--8--------7--------8-----|--7-----------|
 --0--0--0--0--0--0---8--7--|--6--0--0--5--0--0--6--0--|--5--0-----0--|

[E] [E] [E] [E] [E] [E] [E] [E] [E] [E] [E] [E] [E] [E] [E] [E]  
 
 --------------------------|---------------------------|
 --------------------------|---------------------------|
 --------------------7-----|---------------------------|
 --------------------5-----|---------------------------|
 --8--------7--------------|--------------------10--9--|
 --6--0--0--5--0--0-----0--|--0--0--0--0--0--0---8--7--|

[E] [E] [E] [E] [E] [E] [E] [E] [E] [E] [E] [E] [E] [E] [E] [E] [E] [E] [E] [E]  
 
 --------------------------|--------------|--------------------------|
 --------------------------|--------------|--------------------------|
 --------------------------|--------7-----|--------------------7-----|
 --------------------------|--------5-----|--------------------5-----|
 --8--------7--------8-----|--7-----------|--8--------7--------------|
 --6--0--0--5--0--0--6--0--|--5--0-----0--|--6--0--0--5--0--0-----0--|

[E] [E] [E] [E] [E] [E] [E] [E] [E] [E] [E] [E] [E] [E] [E] [E] [E] [E] [E] [E]  
 
 ---------------------------|--------------------------|--------------|
 ---------------------------|--------------------------|--------------|
 ---------------------------|--------------------------|--------7-----|
 ---------------------------|--------------------------|--------5-----|
 --------------------10--9--|--8--------7--------8-----|--7-----------|
 --0--0--0--0--0--0---8--7--|--6--0--0--5--0--0--6--0--|--5--0-----0--|

[E] [E] [E] [E] [E] [E] [E] [E] [E] [E] [E] [E] [E] [E] [E] [E]  
 
 --------------------------|---------------------------|
 --------------------------|---------------------------|
 --------------------7-----|---------------------------|
 --------------------5-----|--9------8--7--6-----5--4--|
 --8--------7--------------|--7--10--6--5--4-----3--2--|
 --6--0--0--5--0--0-----0--|------8-----------0--------|

[E] [E] [E] [E] [E] [E] [E] [E] [E] [E] [E] [E] [E] [E] [E] [E] [E] [E] [E] [E]  
 
 |---------------------------|--------------|--------------------------|
 |---------------------------|--------------|--------------------------|
 |*--------------------------|--------7-----|--------------------7-----|
 |*--------------------------|--------5-----|--------------------5-----|
 |---8--------7--------8-----|--7-----------|--8--------7--------------|
 |---6--0--0--5--0--0--6--0--|--5--0-----0--|--6--0--0--5--0--0-----0--|

E E E E E E E E 3x E E E E E E E E
 
 ----------------------------||--------------------------|
 ----------------------------||--------------------------|
 ---------------------------*||--------------------------|
 --9------8--7--6-----5--4--*||--3--------------5--3-----|
 --7--10--6--5--4-----3--2---||--1-----------5--3--1--5--|
 ------8-----------0---------||-----1--1--1--3--------3--|

Guitar Solo 2
S S S S S S S S S S S S S S S S
 
 ----------------------------------------------------------------------------|
 ----------------------------------------------------------------------------|
 --6pb-----------6pb-6pb-6pb-6pb-6pb-6pb-6pb-6pb-6pb-6pb-6pb-6pb-6pb-6pb-6pb-|
 ----------------------------------------------------------------------------|
 ----------------------------------------------------------------------------|
 ----------------------------------------------------------------------------|

S S S S S S S S S S S S S S S S
 
 ------------------------------------------------------------------|
 ------------------------------------------------------------------|
 --6pb-6pb-6pb-6pb-6pb-6pb-6pb-6pb-6pb-6pb-6pb-6pb-6pb-6pb-6pb-6pb-|
 ------------------------------------------------------------------|
 ------------------------------------------------------------------|
 ------------------------------------------------------------------|

S S S S S S S S S S E S S S S S E S S E S S S S S S S S S
 
 ---------------------------------|------------------------4-------|
 ---------------------------------|----------------------4---4-----|
 --6-6-4-----4--------------------|--4----7-4----4-5-6-7-------7-6-|
 --------6-6---6-5-4--------4-5-6-|--------------------------------|
 --------------------4-5--6-------|--------------------------------|
 ---------------------------------|--------------------------------|

S S S S S S S S S S S S S S S S
 
 -----------------------------------|
 --4-5-7-4-5-7-6-7-8-7-8-9-8-9-10-8-|
 -----------------------------------|
 -----------------------------------|
 -----------------------------------|
 -----------------------------------|

S S S S S S S S S S S S S S S S
 
 ------------------------------------------------|
 --9-10-9-10-11-12-10-11-12-11-12-13-14-12-13-14-|
 ------------------------------------------------|
 ------------------------------------------------|
 ------------------------------------------------|
 ------------------------------------------------|

S S S S S S S S S S S S S S S S
 
 ----------------------------------------------16-|
 --13-14-15-13-14-15-14-15-17---15-18-15-17-19----|
 -------------------------------------------------|
 -------------------------------------------------|
 -------------------------------------------------|
 -------------------------------------------------|

S S S S S S S S S S S S S S S S
 
 --19p-16----16-19p-16----16-21p-16-19p-16----16-21p-16-|
 ---------19-----------19------------------19-----------|
 -------------------------------------------------------|
 -------------------------------------------------------|
 -------------------------------------------------------|
 -------------------------------------------------------|

Q Q E S S E E Q E S S E S S E E
 
 --21b----L-----------------|---------------------------|
 ---------------------------|---------------------------|
 ---------------------------|---------------------------|
 ------------------------6--|--L---------------------8--|
 ------------------------4--|--L---------------------6--|
 --------------6--6-6-6-----|-------6--6-6-6--6-6-6-----|

Q E S S E S S E E Q E E E Q. W
 
 ---------------------------|-----------------------|---------------------|
 ---------------------------|-----------------------|---------------------|
 ---------------------------|-----------------------|---------------------|
 --L---------------------9--|--L-------9-----8------|--(8)----------------|
 --L---------------------7--|--L-------7-----6------|--(6)----------------|
 -------6--6-6-6--6-6-6-----|-------6---------------|---------------------|

S S S S S S S S S S S S S S S S S S S S S S S S S S S S E E
 
 ----------------------------------|--------------------------------|
 ----------------------------------|--------------------------------|
 ----------------------------------|--------------------------------|
 ----------6-----------------------|----------6---------------2-----|
 --------------------------6-4-----|--------------------------0--4--|
 --4-4-4-4---4-4-4-4-4-4-4-----7-4-|--4-4-4-4---4-4-4-4-4-4-4----2--|
 |----3----| 

S S S S S S S S S S S S S S S S Q Q Q E E E E
 
 ----------------------------------|-----------------------------|
 ----------------------------------|-----------------------------|
 ----------------------------------|-----------------------------|
 ----------6-----------------------|--2----4------------4--5-----|
 --------------------------6-4-----|--0----2----6----L--2--3--6--|
 --4-4-4-4---4-4-4-4-4-4-4-----7-4-|------------4----L--------4--|

S S S S S S S S S S S S S S S S S S S S S S S S S S S S S S S S
 
 |-----------------------------------|----------------------------------|
 |-----------------------------------|----------------------------------|
 |*----------------------------------|----------------------------------|
 |*----------4-----------------------|----------------------------------|
 |---------------------------4-------|----------------------------------|
 |---2-2-2-2---2-2-2-2-2-2-2---2-2-2-|--2-2-2-2-5-2-2-2-2-2-2-2-0-2-2-2-|
 |----3----| 

S S S S S S S S S S S S Q Q Q Q E E E E 3x
 
 -------------------------------------|------------------------------||
 -------------------------------------|------------------------------||
 -------------------------------------|-----------------------------*||
 --4p-2------2p-0---------------------|------------6----L-----------*||
 -------4p-2------4p-2-4p-2------2----|-------5------------5-----5---||
 ---------------------------5p-2------|--4--------------------4------||

S S S S S S S S S S S S S S S S S S S S S S S S S S S S Q
 
 ----------------------------------|-------------------------------------|
 ----------------------------------|-------------------------------------|
 ----------------------------------|-------------------------------------|
 ----------------------------------|--4p-2------2p-0---------------------|
 ----------------------------------|-------4p-2------4p-2-4p-2------2----|
 --2-2-2-2-5-2-2-2-2-2-2-2-0-2-2-2-|---------------------------5p-2------|
 |----3----| 

Q Q Q E E E E E. S E E E E E E
 
 -----------------------------|--------------------------|
 -----------------------------|--------------------------|
 -----------------------------|--------------------------|
 ------------6----L-----------|-----------2--L-----------|
 -------5------------5-----5--|--4-----4--0--L--2--L--3--|
 --4--------------------4-----|--2---0-2--------0--L--1--|

E. S E E E E E E E. S E E E E E E
 
 --------------------------|----------------------------|
 --------------------------|----------------------------|
 --------------------------|----------------------------|
 -----------5--L--------3--|-----------12-----11-----9--|
 --4-----4--3--L--5--L--1--|--4-----4--10------9-----7--|
 --2---0-2--------3--L-----|--2---0-2-------------------|

E. S E E E E E E E. S E E E E E E E. S E E E Q.
 
 --------------------------|--------------------------|------------------------|
 --------------------------|--------------------------|------------------------|
 --------------------------|--------------------------|------------------------|
 -----------7--L--------7--|-----------2--L-----------|-----------7-----9------|
 --4-----4--5--L--6--L--5--|--4-----4--0--L--2--L--3--|--4-----4--5-----7------|
 --2---0-2--------4--L-----|--2---0-2--------0--L--1--|--2---0-2---------------|

S S S S S S S S S S S S S S S S E E Q H
 
 -----------------------------------|----------------------|
 -----------------------------------|----------------------|
 --6--------------------------------|----------------------|
 ----9-7-6---------6----------------|----------------------|
 ----------9-7-------9-7------------|----------------------|
 --------------9-7-------10-9-7-5-4-|--2-------------------|

E E E E E E E E S S S S S S S S E E E E H
 
 --------------------------|--------------------------------|-----------|
 --------------------------|--------------------------------|-----------|
 --------------------------|--------------------------------|-----------|
 --------------------9-----|--10----------------------9-----|--7--------|
 --4-----3-----2-----7-----|---8---5-5-----5h-7-------7-----|--5--------|
 --2-----1-----0-----------|-----------0-7------0-----------|-----------|

E E E E S S S S S S S S E E E E H
 
 --------------------------------|-----------------------|
 --------------------------------|-----------------------|
 --------------------------------|-----------------------|
 --------9-----10----------------|--------9-----7--------|
 --------7------8---5-5-----5h-7-|--------7-----5--------|
 --0--------------------0-7------|--0--------------------|

Guitar Solo 4
 
 |--------3-------| |--3--| |--3--| |--3--| |--3--| |--3--| |--3--| |--3

S S S S S S S S S S S S S S S S S S S S S S S
 
 --8p------------0h-8p-7p-0h-7h-8p-0h-8p-7p-0h-7h-8p-0h-8p-7p-0h-7h-8p-0h-8p-7h-8
 --------------------------------------------------------------------------------
 --------------------------------------------------------------------------------
 --------------------------------------------------------------------------------
 --------------------------------------------------------------------------------
 --------------------------------------------------------------------------------
 |---3---| |---3---| 

E. S Q S S S E S S S E
 
 --12S---24-24--------------------14h-15p-14h-15--|
 -------------------------------------------------|
 -----------------11h-12p-11h-12------------------|
 -------------------------------------------------|
 -------------------------------------------------|
 -------------------------------------------------|
 |--3--| |--3--| |--3--| |--3--| |--3--| |--3--| |--3--| |--3--| 

S S S S S S S S S S S S S S S S S S S S S S S S
 
 --8p-0h-8p-7p-0h-7h-8p-0h-8p-7p-0h-7h-8p-0h-8p-7p-0h-7h-8p-0h-8p-7h-8-10-|
 -------------------------------------------------------------------------|
 -------------------------------------------------------------------------|
 -------------------------------------------------------------------------|
 -------------------------------------------------------------------------|
 -------------------------------------------------------------------------|
 |-----3-----| |-----3----| 

Q Q Q Q Q Q H E S S S S S S
 
 --12----11----10----9----8----15----|----------------------------------|
 ------------------------------------|----------------------------------|
 ------------------------------------|----------------------------------|
 ------------------------------------|----------------------------------|
 ------------------------------------|----------------------11----12-12-|
 ------------------------------------|--12~--------L--10-12----12-------|
 |---3---| 

E E E S T T E S S S S Q
 
 ------------------------------------------------|
 ------------------------------------------------|
 ------------------------------------------------|
 ------------------------------------------------|
 --14--12--11--14-11h-12p-11---------------------|
 -----------------------------14-13-12-10-12~----|

S S S S S S S S S S S S S S S S
 
 -------------------------------------------------|
 -------------------------------------------------|
 -------------------------------------------------|
 -------------------------------------12----14-12-|
 --10-9-------11----12-11-14-12-15-14----15-------|
 -------13-12----13-------------------------------|

S S S S S S S S S S S S S S S S
 
 --------------------------------------12----13----|
 --------------------12----13-12-15-13----15----15-|
 --------13----14-13----14-------------------------|
 --15-14----15-------------------------------------|
 --------------------------------------------------|
 --------------------------------------------------|

Q. S S Q. S S E S S E S S E S S E S S
 
 --12~---------12-12~---------12-|--12----------------------------------------|
 -----------15-------------15----|---------12-12br----------------------------|
 --------------------------------|------14----------13-14-14------------------|
 --------------------------------|----------------------------14-15-15--12-14-|
 --------------------------------|--------------------------------------------|
 --------------------------------|--------------------------------------------|

Q. S S Q. S S E S S E S S E S S Q
 
 --------------------------------|----------------------------------------|
 --------------------------------|----------------------------------------|
 --------------------------------|----------------------------------------|
 --14~------12-14-14~------12-14-|--14------------------------------------|
 --------------------------------|------14-15-15--12-14-14br--11-12-12----|
 --------------------------------|----------------------------------------|
 |---3---| |---3---| 

E E S S S S S S S S S S S S S S
 
 ------------------------------------------------------------|
 ------------------------------------------------------------|
 ------------------------------------------------------------|
 ----------------------------------------------12h-14-15p-14-|
 ----------11h-12-14p-12p-11-12h-14-15p-14p-12---------------|
 --12--13----------------------------------------------------|
 |---3---| |-3-| |-3-| |-3-| |---3---| 

S S S S S S S S E S S S E S E S S S
 
 --------------------------------------------------16h-17--19p-17p-16-|
 -----------------------------------15h-17-18p-17---------------------|
 --13h-14-16p-14p-13-14h-16-17p-16------------------------------------|
 ---------------------------------------------------------------------|
 ---------------------------------------------------------------------|
 ---------------------------------------------------------------------|
 |---3---| |---3---| |---3---| |---3---| |---3---| 

S S S S S S S S S S S S S S S S S S S S S
 
 --20p-19p-17-19p-17p-16-19p-17p-16-17p-16-------------------------------------|
 ------------------------------------------18p-17p-15-17p-15-------------------|
 ------------------------------------------------------------17p-16p-14-16p-14-|
 ------------------------------------------------------------------------------|
 ------------------------------------------------------------------------------|
 ------------------------------------------------------------------------------|
 |---3---| |---3---| |---3---| |---3--| |---3--| |---3--| 

S S S S S S S S S S S S S S S S S S S S S S
 
 -------------------------------------------------------------------------------|
 -------------------------------------------------------------------------------|
 --16p-14p-13-14p-13------------------------------------------------------------|
 --------------------15p-14p-12-14p-12------------------------------------------|
 --------------------------------------14h-15p-14-14p-12-11-12p-11----11--------|
 ------------------------------------------------------------------13----13p-12-|

Outro
H. Q E E E E H E E E E S S S S S S S S
 
 ----------------------|-----------------------|--------------------------------|
 ----------------------|-----------------------|--------------------------------|
 ----------------------|-----------------------|--------------------------------|
 --14~-----------------|--------9-----7--------|--------9-----10----------------|
 ----------------------|--------7-----5--------|--------7------8---5-5-----5h-7-|
 ----------------------|--0--------------------|--0--------------------0-7------|

E E E E H E E E E S S S S S S S S
 
 -----------------------|--------------------------------|
 -----------------------|--------------------------------|
 -----------------------|--------------------------------|
 --------9-----7--------|--------9-----10----------------|
 --------7-----5--------|--------7------8---5-5-----5h-7-|
 --0--------------------|--0--------------------0-7------|

E E E E H E E E E S S S S S S S S
 
 -----------------------|--------------------------------|
 -----------------------|--------------------------------|
 -----------------------|--------------------------------|
 --------9-----7--------|--------9-----10----------------|
 --------7-----5--------|--------7------8---5-5-----5h-7-|
 --0--------------------|--0--------------------0-7------|

E E E E E E Q
 
 -------------------------||
 -------------------------||
 -------------------------||
 --------9-----7----------||
 --------7-----5----------||
 --0----------------------||

Duration Legend
 
 ---------------

W - whole
H - half
Q - quarter
E - 8th
S - 16th
T - 32nd
X - 64th
. - note dotted
|-n-| - n-tuplets
Tablature Legend
 
 ----------------

L - tied note
x - dead note
g - grace note
(n) - ghost note
> - accentuded note
NH - natural harmonic
AH - artificial harmonic
TH - tapped harmonic
SH - semi harmonic
PH - pitch harmonic
h - hammer on
p - pull off
b - bend
br - bendRelease
pb - preBend
pbr - preBendRelease
brb - bendReleaseBend
\n/ - tremolo bar dip
\n - tremolo bar dive
-/n - tremolo bar Release up
/n\ - tremolo bar inverted dip
/n - tremolo bar return
-\n - tremolo bar Release down
S - shift slide
s - legato slide
/ - slide into from below or out of upwards
\ - slide into from above or out of downwards
~ - vibrato
W - wide vibrato
tr - trill
TP - tremolo picking
T - tapping
S - slap
P - pop
< - fade in
^ - brush up
v - brush down

Important: The song above is NOT stored on the Chordie server. The original song is hosted at www.guitaretab.com. Chordie works as a search engine and provides on-the-fly formatting. Chordie does not index songs against artists'/composers' will. To remove this song please click here.

Text color:
Chord color:
Chord grids: 
Font size:    
Page size: 

E
Rate #1 of 4 versions

Jango Player

Login - add to songbook

SHARE PAGE  




You need to log in to post comments