Guitar Tabs, Chords and Lyrics
Server problems seems to be fixed. Chordie has been experiencing problems with songs disappearing. These issues now seems to be fixed, but still verifying the fix. If you find anything strange, please email admin@chordie.com.


Captive Honour  Megadeth

Song: Captive Honour
Tabbed by: John Mercer
E-mail: spacenumber6@hotmail.com
This is a the complete tab,
the timing's a bit off,
but getting the timing in a tab is hard.
The solo timing is so not right,
just listein to the CD for it.
Pretty easy tune to play, minus some solo parts.
Intro:
[Em] [G] [Asus2] [C] [D/F#] 
Madness comes and madness goes an in-
Gtr 1
 
 e---------0----------------0--------|-----------------------------------|
 B--------------0--------0---0---0-0-|-0-------0-------------------------|
 G-------0----0--------0-------0-----|-------0---0---0--------0--------0-|
 D-----2-----------------------------|-----7-------7--------2--------0---|
 A---2---------------2---------------|---7----------------3--------0-----|
 E-0---------------3-----------------|-5----------------3--------2-------|

|
|
Gtr 2 |
 
 e-----0---3----0------0----3------0-|-----0---3-----0-------------------|
 B-------0----0----------0------0----|-------0-----0---------------------|
 G---0---------------0---------------|---0--------------------0--------0-|
 D-2---------------2-----------------|-2--------------------2--------0---|
 A-----------------------------------|--------------------3--------0-----|
 E-----------------------------------|------------------3--------2-------|

[Em] [G] [Asus2] [C] [D/F#] 
sane place with insane moves
 
 e---------0----------------0--------|-----------------------------------|
 B--------------0--------0---0---0-0-|-0-------0-------------------------|
 G-------0----0--------0-------0-----|-------0---0---0--------0--------0-|
 D-----2-----------------------------|-----7-------7--------2--------0---|
 A---2---------------2---------------|---7----------------3--------0-----|
 E-0---------------3-----------------|-5----------------3--------2-------|

|
|
|
 
 e-----0---3----0------0----3------0-|-----0---3-----0-------------------|
 B-------0----0----------0------0----|-------0-----0---------------------|
 G---0---------------0---------------|---0--------------------0--------0-|
 D-2---------------2-----------------|-2--------------------2--------0---|
 A-----------------------------------|--------------------3--------0-----|
 E-----------------------------------|------------------3--------2-------|

[Em] [G] [Asus2] [C] [D/F#] 
Battles without for battles within Where e-
 
 e---------0----------------0--------|-----------------------------------|
 B--------------0--------0---0---0-0-|-0-------0-------------------------|
 G-------0----0--------0-------0-----|-------0---0---0--------0--------0-|
 D-----2-----------------------------|-----7-------7--------2--------0---|
 A---2---------------2---------------|---7----------------3--------0-----|
 E-0---------------3-----------------|-5----------------3--------2-------|

|
|
|
 
 e-----0---3----0------0----3------0-|-----0---3-----0-------------------|
 B-------0----0----------0------0----|-------0-----0---------------------|
 G---0---------------0---------------|---0--------------------0--------0-|
 D-2---------------2-----------------|-2--------------------2--------0---|
 A-----------------------------------|--------------------3--------0-----|
 E-----------------------------------|------------------3--------2-------|

[Em] [G] [Asus2] [C] [D/F#] 
vil lives an' evil rules
 
 e---------0----------------0--------|-----------------------------------|
 B--------------0--------0---0---0-0-|-0-------0-------------------------|
 G-------0----0--------0-------0-----|-------0---0---0--------0--------0-|
 D-----2-----------------------------|-----7-------7--------2--------0---|
 A---2---------------2---------------|---7----------------3--------0-----|
 E-0---------------3-----------------|-5----------------3--------2-------|

|
|
|
 
 e-----0---3----0------0----3------0-|-----0---3-----0-------------------|
 B-------0----0----------0------0----|-------0-----0---------------------|
 G---0---------------0---------------|---0--------------------0--------0-|
 D-2---------------2-----------------|-2--------------------2--------0---|
 A-----------------------------------|--------------------3--------0-----|
 E-----------------------------------|------------------3--------2-------|

[Em] [G] [D/F#] [Em] [G] [D/F#] 
Breakin'them up just breakin'them in.Quickest way out,quickest relief
 
 e---------0-------------------------|---------0--------------------------|
 B-----------0---0-------------------|-----------0---0--------------------|
 G-------0-----0----------0--------0-|-------0-----0----------0--------0--|
 D-----2----------------2--------0---|-----2----------------2--------0----|
 A---2----------------2--------0-----|---2----------------2--------0------|
 E-0----------------3--------2-------|-0----------------3--------2--------|

|
|
|
 
 e---------0-------------------------|---------0--------------------------|
 B-----------0---0-------------------|-----------0---0--------------------|
 G-------0-----0----------0--------0-|-------0-----0----------0--------0--|
 D-----2----------------2--------0---|-----2----------------2--------0----|
 A---2----------------2--------0-----|---2----------------2--------0------|
 E-0----------------3--------2-------|-0----------------3--------2--------|

[Em] [G] [D/F#] [Em] [G] [D/F#] 
wins. Never disclose never betray Cease to speak or cease to
 
 e---------0-------------------------|---------0-------------------------|
 B-----------0---0-------------------|-----------0---0-------------------|
 G-------0-----0----------0--------0-|-------0-----0----------0--------0-|
 D-----2----------------2--------0---|-----2----------------2--------0---|
 A---2----------------2--------0-----|---2----------------2--------0-----|
 E-0----------------3--------2-------|-0----------------3--------2-------|

|
|
|
 
 e---------0-------------------------|---------0-------------------------|
 B-----------0---0-------------------|-----------0---0-------------------|
 G-------0-----0----------0--------0-|-------0-----0----------0--------0-|
 D-----2----------------2--------0---|-----2----------------2--------0---|
 A---2----------------2--------0-----|---2----------------2--------0-----|
 E-0----------------3--------2-------|-0----------------3--------2-------|

[Em] [Csus2] [D/a] [Em] [Em/G] [Em] 
breathe An'when you kill a man you're a murderer Kill many an'you're a
 
 e---------0----------------------------|---------0----------------------------|
 B-----------0---0----------------------|-----------0---0----------------------|
 G-------0-----0----------0-----------0-|-------0-----0----------0--------0----|
 D-----2----------------0-----------4---|-----2----------------2--------2------|
 A---2----------------3-----------5-----|---2----------------2--------2--------|
 E-0----------------3-----------5-------|-0----------------3--------0----------|

|
|
|
 
 e---------0----------------------------|-0-------0----------------------------|
 B-----------0---0--------------3-------|-----------0---0-----------3---5------|
 G-------0-----0----------0-------0---0-|-------------0------------------------|
 D-----2----------------0-----------4---|--------------------------------------|
 A---2----------------5-----------------|--------------------------------------|
 E-0----------------3-------------------|--------------------------------------|

[F#7] [Csus2] [D/A] [Em] [Em/G] [Em] 
conquerer Kill them all oo' oh you're a god
 
 e---------0-------------------------|---------0--------------------------|
 B-----------0---0-------------------|-----------0---0--------------------|
 G-------3-----3----------0--------0-|-------0-----0----------0--------0--|
 D-----4----------------0--------4---|-----2----------------2--------2----|
 A---4----------------3--------5-----|---2----------------2--------2------|
 E-2----------------3--------5-------|-0----------------3--------0--------|

|
|
|
 
 e-2---------------------------------|-0-------0--------------------------|
 B---------------------------3---5---|-----------0---0-----------3--------|
 G-----------------------------------|-------------0----------------------|
 D-----------------------------------|------------------------------------|
 A-----------------------------------|------------------------------------|
 E-----------------------------------|------------------------------------|

Gtr's 1 & 2
[F#] [F] [E] [C] [G] [F#] 
Ladies and gentlemen of the jury have you reached a verdict
 
 e-------------------------|------------------------------------|
 B-------------------------|------------------------------------|
 G-------------------------|---------5--------------------------|
 D-4----------3------------|---2-----5----------5-------4-------|
 A-4----------3------------|---2-----3----------5-------4-------|
 E-2----------1------------|---0----------------3-------2-------|

[F] [E] [C] [G] [F#] [F] 
Yes we have your Honour We find the defendant guilty
 
 e------------------------|----------------------------------|
 B------------------------|----------------------------------|
 G------------------------|-------------5--------------------|
 D-------------3----------|-2-----------5-------5-4--------3-|
 A-------------3----------|-2-----------3-------5-4--------3-|
 E-------------1----------|-0-------------------3-2--------1-|

[E] [C] [G] [F#] [F] [E] 
on all counts for crimes against all humanity
 
 e----------------------------------------------------------------|
 B----------------------------------------------------------------|
 G--------------5-------------------------------------------------|
 D-------2------5----5-----4------3-------2-----------------------|
 A-------2------3----5-----4------3-------2-------3-2-0---2---0-2-|
 E-------0-----------3-----2------1-------0-------------2---2-----|

[F#] [F] [E] [B] [C] [F#G] 
By virtue of the jury's decision and the power vested in me
 
 e--------------------------------------------------------------|
 B--------------------------------------------------------------|
 G--------------------------------------------------------------|
 D-4-x-x-x--4--3--x--x--x--3--2--x--x--x----2-----4/5-------4/5-|
 A-4-x-x-x--4--3--x--x--x--3--2--x--x--x----2-----2/3-------4/5-|
 E-2-x-x-x--2--1--x--x--x--1--0--x--x--x----0----------0-0--2/3-|

[F#] [F] [E] [B] [C] [F#G] 
by the state I hearby sentence you to be incarcerated
 
 e---------------------------------------------------------------|
 B---------------------------------------------------------------|
 G---------------------------------------------------------------|
 D-4-x-x-x--4--3--x--x--x--3--2--x--x--x----2-----4/5-------4/5--|
 A-4-x-x-x--4--3--x--x--x--3--2--x--x--x----2-----2/3-------4/5--|
 E-2-x-x-x--2--1--x--x--x--1--0--x--x--x----0----------0-0--2/3--|

[F#] [F] [E] [B] [C] [F#G] 
with no possibilty of parole for life
 
 e--------------------------------------------------------------|
 B--------------------------------------------------------------|
 G--------------------------------------------------------------|
 D-4-x-x-x--4--3--x--x--x--3--2--x--x--x----2-----4/5-------4/5-|
 A-4-x-x-x--4--3--x--x--x--3--2--x--x--x----2-----2/3-------4/5-|
 E-2-x-x-x--2--1--x--x--x--1--0--x--x--x----0----------0-0--2/3-|

[F#] [F] [E] [B] [C] [F#G] 
Life What do ya mean life I ain't got a life
 
 e---------------------------------------------------------------|
 B---------------------------------------------------------------|
 G---------------------------------------------------------------|
 D-4-x-x-x--4--3--x--x--x--3--2--x--x--x----2-----4/5-------4/5--|
 A-4-x-x-x--4--3--x--x--x--3--2--x--x--x----2-----2/3-------4/5--|
 E-2-x-x-x--2--1--x--x--x--1--0--x--x--x----0----------0-0--2/3--|

[F#]  
Boy your soul better belong to Jesus Hmmm
 
 e------------------------------------------------|
 B------------------------------------------------|
 G------------------------------------------------|
 D-4----------------------------------------------|
 A-4----------------------------------------------|
 E-2--2--2--2--2--2--2--2--2--2--2--2--2--2--2--2-|

cause your ass belonds to me ha,ha,ha
 
 e-------------------------|-------------------------------|
 B-------------------------|-------------------------------|
 G-------------------------|-------------------------------|
 D-4-----------------------|-------------------------------|
 A-4-----------------------|---------------3-2-0---2---0-2-|
 E-2--2--2--2--2--2--2--2--|--2--2--2--2---------2---2-----|

Chorus
[F#] [F] [B] [A] [B] [G] 
Captive Honour ain't no honour
 
 e-----------------------------------|----------------------------------|
 B-----------------------------------|----------------------------------|
 G-----------------------------------|----------------------------------|
 D------------4------------3h4-4-----|--------3h4-4---------------------|
 A----0-2-2/4---4-0-3--3-3-------3-0-|-2--2-2-------2-----4-7-----6-9-5-|
 E-2---------------------------------|----------------4-5-----6-7-----3-|

[F#] [F] [B] [A] [B] [G] 
Captive Honour ain't no honour
 
 e-----------------------------------|----------------------------------|
 B-----------------------------------|----------------------------------|
 G-----------------------------------|----------------------------------|
 D------------4------------3h4-4-----|--------3h4-4---------------------|
 A----0-2-2/4---4-0-3--3-3-------3-0-|-2--2-2-------2-----4-7-----6-9-5-|
 E-2---------------------------------|----------------4-5-----6-7-----3-|

Verse
[F#] [F] [B] 
No time for questions no time for games
 
 Pm----------- Pm-----------
 e------------------------------------|--------------------------------------|
 B------------------------------------|--------------------------------------|
 G------------------------------------|--------------------------------------|
 D------------------------------------|-4------------------------------------|
 A-4-----------------3----------------|-2--2--2--2--2--2--2--3-2-0---2---0-2-|
 E-2--2--2--2--2--2--1--1--1--1--1--1-|----------------------------2---2-----|

[F#] [F] [B] 
Start kickin' ass An' takin' down the names
 
 Pm----------- Pm-----------
 e------------------------------------|--------------------------------------|
 B------------------------------------|--------------------------------------|
 G------------------------------------|--------------------------------------|
 D------------------------------------|-4------------------------------------|
 A-4-----------------3----------------|-2--2--2--2--2--2--2--3-2-0---2---0-2-|
 E-2--2--2--2--2--2--1--1--1--1--1--1-|----------------------------2---2-----|

[F#] [F] [B] 
A long shit list a shorter fuse
 
 Pm----------- Pm-----------
 e------------------------------------|--------------------------------------|
 B------------------------------------|--------------------------------------|
 G------------------------------------|--------------------------------------|
 D------------------------------------|-4------------------------------------|
 A-4-----------------3----------------|-2--2--2--2--2--2--2--3-2-0---2---0-2-|
 E-2--2--2--2--2--2--1--1--1--1--1--1-|----------------------------2---2-----|

[F#] [F] [B] 
He is untouchable an' guarantees love
 
 Pm----------- Pm-----------
 e------------------------------------|--------------------------------------|
 B------------------------------------|--------------------------------------|
 G------------------------------------|--------------------------------------|
 D------------------------------------|-4------------------------------------|
 A-4-----------------3----------------|-2--2--2--2--2--2--2--3-2-0---2---0-2-|
 E-2--2--2--2--2--2--1--1--1--1--1--1-|----------------------------2---2-----|

Chorus
[F#] [F] [B] [A] [B] [G] 
Captive Honour ain't no honour
 
 e-----------------------------------|----------------------------------|
 B-----------------------------------|----------------------------------|
 G-----------------------------------|----------------------------------|
 D------------4------------3h4-4-----|--------3h4-4---------------------|
 A----0-2-2/4---4-0-3--3-3-------3-0-|-2--2-2-------2-----4-7-----6-9-5-|
 E-2---------------------------------|----------------4-5-----6-7-----3-|

[F#] [F] [B] [A] [B] [G] 
Captive Honour ain't no honour
 
 e-----------------------------------|----------------------------------|
 B-----------------------------------|----------------------------------|
 G-----------------------------------|----------------------------------|
 D------------4------------3h4-4-----|--------3h4-4---------------------|
 A----0-2-2/4---4-0-3--3-3-------3-0-|-2--2-2-------2-----4-7-----6-9-5-|
 E-2---------------------------------|----------------4-5-----6-7-----3-|

1st Solo
[F#] [A] [E] [A] [C] [F#] [A] [E] [G] 
 
 e---------------------------------|-----------------------------|
 B---------------------------------|-----------------------------|
 G-----------------------------5-5-|-----------------------------|
 D------------2-------2----x-x-5-5-|----------2------------------|
 A-4---4-4----0-2-----0-0--x-x-3-3-|-4---4-4--0---2--x-x-5-x-x-5-|
 E-2------------0------------------|-2------------0--x-x-3-x-x-3-|

|
|
|
 
 e---------------------------------|-----------------------------|
 B---------------------------------|-----------------------------|
 G---------------------------------|-----------------------------|
 D-------4-4--3-2~~~---------------|----------4-3-2--------------|
 A-------------------------5-4-3---|-----------------x-x-5-x-x-5-|
 E-2-2-2--------------2-2----------|-2-2-2-2---------x-x-3-x-x-3-|

[F#] [A] [E] [A] [C] [F#] [A] [E] [G] 
 
 e---------------------------------|------------------------------|
 B---------------------------------|------------------------------|
 G-----------------------------5-5-|------------------------------|
 D------------2-------2----x-x-5-5-|-----------2------------------|
 A-4---4-4----0---2---0-0--x-x-3-3-|-4---4-4---0---2--x-x-5-x-x-5-|
 E-2--------------0----------------|-2-------------0--x-x-3-x-x-3-|

|
Ah |
|
 
 e---------------------------------|------------------------------|
 B---------------------------------|------------------------------|
 G---------------------------------|------------------------------|
 D------------4-3-2~~--------------|------------------------------|
 A-------------------------5-4-3-3-|-2h3p2p0---2-0--------5-x-x-5-|
 E-2---2-2------------2-2----------|---------2-----2-0-2--3-x-x-3-|

[F#] [A] [E] [A] [C] [F#] [A] [E] [G] 
 
 e-----------------------------------|-----------------------------|
 B-----------------------------------|-----------------------------|
 G-------------------------------5-5-|-----------------------------|
 D------------2---------2----x-x-5-5-|----------2------------------|
 A-4---4-4----0---2-----0-0--x-x-3-3-|-4---4-4--0---2--x-x-5-x-x-5-|
 E-2--------------0------------------|-2------------0--x-x-3-x-x-3-|

|
|
|
 
 e-----------------------------------|-----------------------------|
 B------------7-6-5~~~---------------|----------7-6-5~~----9-----9-|
 G---------------------------7-6-5~--|---------------------7-----7-|
 D-4---4-4--------------4-4----------|-4---4-4-------------5-----5-|
 A-----------------------------------|-----------------x-x---x-x---|
 E-----------------------------------|-----------------x-x---x-x---|

[F#] [A] [E] [A] [C] [F#] [A] 
 
 e-----------------------------------|-------------------------------------|
 B-----------------------------------|-------------------------------------|
 G-------------------------------5-5-|-------------------------------------|
 D------------2---------2----x-x-5-5-|-------------------------2-----------|
 A-4---4-4----0---2-----0-0--x-x-3-3-|-4-----------4-4---------0-----------|
 E-2--------------0------------------|-2-----------------------------------|
 e-----------------------------------|-14h19p14----14h19p14----14h19p14----|
 B------------7-6-5~~----------------|----------17----------17----------17-|
 G---------------------------7-6-5~~-|-------------------------------------|
 D-4---4-4--------------4-4----------|-------------------------------------|
 A-----------------------------------|-------------------------------------|
 E-----------------------------------|-------------------------------------|

[E] [G]  
 
 e------------------------------------------------------------------|
 B------------------------------------------------------------------|
 G------------------------------------------------------------------|
 D-------------------------5-----------------------5----------------|
 A-2-----------x-----x-----5-----------x-----x-----5----------------|
 E-0-----------x-----x-----3-----------x-----x-----3----------------|

|
|
|
 
 e-14h19p14----14h19p14----14h19p14----14h19p14----14h19p14-----19b-|
 B----------17----------17----------17----------17----------17------|
 G------------------------------------------------------------------|
 D------------------------------------------------------------------|
 A------------------------------------------------------------------|
 E------------------------------------------------------------------|

2nd Verse
[F#] [F] [B] 
Inside the big house his nightmare unfolds
 
 Pm----------- Pm-----------
 e------------------------------------|--------------------------------------|
 B------------------------------------|--------------------------------------|
 G------------------------------------|--------------------------------------|
 D------------------------------------|-4------------------------------------|
 A-4-----------------3----------------|-2--2--2--2--2--2--2--3-2-0---2---0-2-|
 E-2--2--2--2--2--2--1--1--1--1--1--1-|----------------------------2---2-----|

[F#] [F] [B] 
Before he got there his man pussy was sold
 
 Pm----------- Pm-----------
 e------------------------------------|--------------------------------------|
 B------------------------------------|--------------------------------------|
 G------------------------------------|--------------------------------------|
 D------------------------------------|-4------------------------------------|
 A-4-----------------3----------------|-2--2--2--2--2--2--2--3-2-0---2---0-2-|
 E-2--2--2--2--2--2--1--1--1--1--1--1-|----------------------------2---2-----|

[F#] [F] [B] 
Black blanket welcome this tough guy's now a bitch
 
 Pm----------- Pm-----------
 e------------------------------------|--------------------------------------|
 B------------------------------------|--------------------------------------|
 G------------------------------------|--------------------------------------|
 D------------------------------------|-4------------------------------------|
 A-4-----------------3----------------|-2--2--2--2--2--2--2--3-2-0---2---0-2-|
 E-2--2--2--2--2--2--1--1--1--1--1--1-|----------------------------2---2-----|

[F#] [F] [B] 
Prayin' for death When it can't be worse than this
 
 Pm----------- Pm-----------
 e------------------------------------|--------------------------------------|
 B------------------------------------|--------------------------------------|
 G------------------------------------|--------------------------------------|
 D------------------------------------|-4------------------------------------|
 A-4-----------------3----------------|-2--2--2--2--2--2--2--3-2-0---2---0-2-|
 E-2--2--2--2--2--2--1--1--1--1--1--1-|----------------------------2---2-----|

Chorus
[F#] [F] [B] [A] [B] [G] 
Captive Honour ain't no honour
 
 e-----------------------------------|----------------------------------|
 B-----------------------------------|----------------------------------|
 G-----------------------------------|----------------------------------|
 D------------4------------3h4-4-----|--------3h4-4---------------------|
 A----0-2-2/4---4-0-3--3-3-------3-0-|-2--2-2-------2-----4-7-----6-9-5-|
 E-2---------------------------------|----------------4-5-----6-7-----3-|

[F#] [F] [B] [A] [B] [G] 
Captive Honour ain't no honour
 
 e-----------------------------------|----------------------------------|
 B-----------------------------------|----------------------------------|
 G-----------------------------------|----------------------------------|
 D------------4------------3h4-4-----|--------3h4-4---------------------|
 A----0-2-2/4---4-0-3--3-3-------3-0-|-2--2-2-------2-----4-7-----6-9-5-|
 E-2---------------------------------|----------------4-5-----6-7-----3-|

2nd Solo
[F#] [A] [E] [A] [C] [F#] [A] [E] [G] 
 
 e----------------------------------|--------------------------------------|
 B----------------------------------|--------------------------------------|
 G------------------------------5-5-|--------------------------------------|
 D------------2--------2----x-x-5-5-|----------2---------------------------|
 A-4---4-4----0--2-----0-0--x-x-3-3-|-4---4-4--0---2--x-x-5-x-x-5----------|
 E-2-------------0------------------|-2------------0--x-x-3-x-x-3----------|

|
|
|
 
 e----------------------------------|-------14-----------------------------|
 B-16b--------14----17-16--14~------|----14----17bp16p14----14-------------|
 G-16b--------14-16-17-16--14~------|-16-----------------16----17-16-14h17-|
 D---------------16-17-16--14~--16--|--------------------------------------|
 A----------------------------------|--------------------------------------|
 E----------------------------------|--------------------------------------|

[F#] [A] [E] [A] [C] [F#] [A] [E] [G] 
 
 e----------------------------------|------------------------------|
 B----------------------------------|------------------------------|
 G------------------------------5-5-|------------------------------|
 D------------2--------2----x-x-5-5-|----------2-------------------|
 A-4---4-4----0--2-----0-0--x-x-3-3-|-4---4-4--0---2--x-x-5-x-x-5--|
 E-2-------------0------------------|-2------------0--x-x-3-x-x-3--|

|
Pick |
Slide |
 
 e-17-16-14-------------------------|------------------------------|
 B-17-16-14-17-14-17-16-14----------|------------------------------|
 G----------17-14-17-16-14-16-14-16-|-15-14----14-------------x\x\-|
 D-------------------------16-14-16-|-15-14-16-14-16--15-14-x/x\x\-|
 A----------------------------------|-------16----16--15-14-x/-----|
 E----------------------------------|------------------------------|

[F#] [A] [E] [A] [C] [F#] [A] [E] [G] 
 
 e----------------------------------|--------------------------------------|
 B----------------------------------|--------------------------------------|
 G------------------------------5-5-|--------------------------------------|
 D------------2--------2----x-x-5-5-|----------2---------------------------|
 A-4---4-4----0--2-----0-0--x-x-3-3-|-4---4-4--0---2--x-x-5-x-x-5----------|
 E-2-------------0------------------|-2------------0--x-x-3-x-x-3----------|

|
|
|
 
 e-----14------------16-------------|-----17-----------19------------------|
 B-17b-----------19b----------------|-20b----------22b---------------------|
 G----------------------------------|--------------------------------------|
 D----------------------------------|--------------------------------------|
 A----------------------------------|--------------------------------------|
 E----------------------------------|--------------------------------------|

[F#] [A] [E] [A] [C] [F#] [A] [E] [G] 
 
 e------------------------------------|--------------------------------------|
 B------------------------------------|--------------------------------------|
 G------------------------------5-5---|--------------------------------------|
 D------------2--------2----x-x-5-5---|----------2---------------------------|
 A-4---4-4----0--2-----0-0--x-x-3-3---|-4---4-4--0---2--x-x-5-x-x-5----------|
 E-2-------------0--------------------|-2------------0--x-x-3-x-x-3----------|

|
|
 
 hold bend ----------- |
 e-----24-----24-----24-----24-----24-|-24b-24-24-24-24-24-24----------------|
 B-24b----24b----24b----24b----24b----|-----------------------17b------------|
 G------------------------------------|--------------------------------------|
 D------------------------------------|--------------------------------------|
 A------------------------------------|--------------------------------------|
 E------------------------------------|--------------------------------------|

[F#] [A] [G] [F] [A] [G] [F#] 
 
 e---------------------------------------------------|
 B---------------------------------------------------|
 G---------------------------------------------------|
 D--4----4--7\5--------------3-------7\5-------------|
 A--4----4--7\5--------------3--3----7\5------4-4----|
 E--2----2--5\3----3--3------1--1----5\3------2-2----|

|
|
|
 
 e-------14-----------------------14-----------------|
 B----------17p14-----14-14-16b~~----17p14-----14-14-|
 G----------------16b----------------------16b-------|
 D---------------------------------------------------|
 A---------------------------------------------------|
 E---------------------------------------------------|

[E] [A] [F#E] [C] [B] [A] [G] [F#] [E] 
 
 Pm--------------
 e-------------------------------------------------------------------|
 B-------------------------------------------------------------------|
 G-------------------------------------------------------------------|
 D-2----2--7----------5--4--2----------------------------------------|
 A-2----2--7\4-2------3--2--0---5--4--2------------------------------|
 E-0----0--5\2-0--0-------------3--2--0------------------------------|

|
|
|
 
 e---------14-----------------15-15p12----------12-15p10-------------|
 B-16b~~~-----17p14-----14-14----------13----13----------11----11----|
 G------------------16b-------------------12----------------12----12-|
 D-------------------------------------------------------------------|
 A-------------------------------------------------------------------|
 E-------------------------------------------------------------------|

[F#] [A] [G] [F] [A] [G] [F#] 
 
 e------------------------------------------------------|
 B------------------------------------------------------|
 G------------------------------------------------------|
 D--4----4--7\5--------------3-------7\5----------------|
 A--4----4--7\5--------------3--3----7\5------4-4-------|
 E--2----2--5\3----3--3------1--1----5\3------2-2-------|

|
|
|
 
 e----13b-13-13b-13-14-13-------------------------------|
 B------------------------17-16-15-14----14-15p14----14-|
 G-11---------------------------------17----------17----|
 D------------------------------------------------------|
 A------------------------------------------------------|
 E------------------------------------------------------|

[E] [A] [F#E] [C] [B] [A] [G] [F#] [E] 
 
 Pm--------------
 e------------------------------------------------------------------------------|
 B------------------------------------------------------------------------------|
 G------------------------------------------------------------------------------|
 D-2----2--7----------5--4--2---------------------------------------------------|
 A-2----2--7\4-2------3--2--0---5--4--2-----------------------------------------|
 E-0----0--5\2-0--0-------------3--2--0-----------------------------------------|

|
|
|
 
 e-19-18-17-16-15-------19----19-------------14-----------------------------17b-|
 B----------------19-17----17----17\14-15p14----14----14-----14-17p14-17p14-----|
 G-------------------------------------------------16----16b--------------------|
 D------------------------------------------------------------------------------|
 A------------------------------------------------------------------------------|
 E------------------------------------------------------------------------------|

[F#] [A] [G] [F] [A] [G] [F#] 
 
 e------------------------------------------------|
 B------------------------------------------------|
 G------------------------------------------------|
 D--4----4--7\5--------------3-------7\5----------|
 A--4----4--7\5--------------3--3----7\5------4-4-|
 E--2----2--5\3----3--3------1--1----5\3------2-2-|

|
|
|
 
 e-------17br17-14-17p14-17b--17------17~~~~~-----|
 B-----------------------17b-----17pb---------14--|
 G------------------------------------------------|
 D------------------------------------------------|
 A------------------------------------------------|
 E------------------------------------------------|

[E] [A] [F#E] [C] [B] [A] [G] [F#] [E] 
 
 Pm--------------
 e---------------------------------------------|
 B---------------------------------------------|
 G---------------------------------------------|
 D-2----2--7----------5--4--2------------------|
 A-2----2--7\4-2------3--2--0---5--4--2--------|
 E-0----0--5\2-0--0-------------3--2--0--------|

|
|
Ah |
 
 e-17br17-14-----------------------------------|
 B-17br17----17-14-------------16--------14----|
 G-----------------16-14----------14~~~~-14\10-|
 D-----------------------16-14-----------------|
 A---------------------------------------------|
 E---------------------------------------------|

[F#] [A] [G] [F] [A] [G] [F#] 
 
 e------------------------------------------------|
 B------------------------------------------------|
 G------------------------------------------------|
 D--4----4--7\5--------------3-------7\5----------|
 A--4----4--7\5--------------3--3----7\5------4-4-|
 E--2----2--5\3----3--3------1--1----5\3------2-2-|

|
|
Ah |
 
 e-x-19pb-19b-19-17----------------14-------------|
 B-x----------------19----12-13h14----14----------|
 G---------------------14-------------------------|
 D------------------------------------------------|
 A------------------------------------------------|
 E------------------------------------------------|

[E] [A] [F#E]  
 
 e----------------------------------------------------------------------------------|
 B----------------------------------------------------------------------------------|
 G----------------------------------------------------------------------------------|
 D-2----2--7------------------------------------------------------------------------|
 A-2----2--7\4-2------3--2--0----2----0---------------------------------------------|
 E-0----0--5\2-0--0------------2---2----2-------------------------------------------|

|
|
|
 
 e-------14----14-16-17-16p14h16----14----------------------------------------------|
 B-17b~~----17-------------------17----15h17p15p14-15----14-------------------------|
 G----------------------------------------------------16----16-14-------------------|
 D----------------------------------------------------------------16-14-------------|
 A----------------------------------------------------------------------15p14-------|
 E----------------------------------------------------------------------------17-14-|

[F#] [F] [B] [A] [B] 
Captive Honour ain't no honour
 
 e-----------------------------------|---------------------------------|
 B-----------------------------------|---------------------------------|
 G-----------------------------------|---------------------------------|
 D------------4------------3h4-4-----|--------3h4-4--------------------|
 A----0-2-2/4---4-0-3--3-3-------3-0-|-2--2-2-------2-----4-7-----6-9--|
 E-2---------------------------------|----------------4-5-----6-7------|

[F#] [F#]  
 
 e---------------------------------|
 B---------------------------------|
 G---------------------------------|
 D-4----------------------------4--|
 A-4-----------3-2-0---2---0-2--4--|
 E-2-----------------2---2------2--|

Symbols used in tab
~= Vibrato
h= Hammer
p= Pull-Off
\=Slide Down
/= Slide Up
b= Bend
br= Bend and Release
pb= Pre-bend
Ah= Arificial Harmonic
Pm= Palm Mute
x= Muted String, Pick Slide(scrape)

Important: The song above is NOT stored on the Chordie server. The original song is hosted at www.guitaretab.com. Chordie works as a search engine and provides on-the-fly formatting. Chordie does not index songs against artists'/composers' will. To remove this song please click here.

Text color:
Chord color:
Chord grids: 
Font size:    
Page size: 

A Asus2 B C Csus2 D/F# D/a E Em F F# F#7 G
Rate #2 of 2 versions

Jango Player

Login - add to songbook

SHARE PAGE  



You need to log in to post comments