Guitar Tabs, Chords and Lyrics
Server problems seems to be fixed. Chordie has been experiencing problems with songs disappearing. These issues now seems to be fixed, but still verifying the fix. If you find anything strange, please email admin@chordie.com.


A Gun on His Hip and a Rose on His Chest  Megapuss

Song: A Gun On His Hip and a Rose On His Chest
Tabbed by: Manthony
03.25.09
*A little take on 'I Want Candy' *
TUNING: (E A D G B E)
CHORD DIAGRAM
 
 ----------------------------------------------------------------

[E] [D] [A]  
x x x 4 5 4 x x x 2 3 2 x x 7 6 5 5
[G] [B]  
x x 5 4 3 3 x x 9 8 7 7
 
 ----------------------------------------------------------------
 E||-4--4--4-2/4-|-4-4-4-2-4--||
 B||-5--5--5-3/5-|-5-5-5-3-5--||
 G||-4--4--4-2/4-|-4-4-4-2-4--||
 D||-------------|------------||
 A||-------------|------------||
 E||-------------|------------||

Fuck the president in the asshole
Fuck the government in the asshole
 
 E||-5--5--5-3/6-|-5-5-5-3-5--||
 B||-5--5--5-3/5-|-5-5-5-3-5--||
 G||-6--6--6-4/6-|-6-6-6-4-6--||
 D||-7--7--7-5/7-|-7-7-7-5-7--||
 A||-------------|------------||
 E||-------------|------------|| 

Fuck the taxes
 
 E||-4--4--4-2/4-|-4-4-4-2-4--||
 B||-5--5--5-3/5-|-5-5-5-3-5--||
 G||-4--4--4-2/4-|-4-4-4-2-4--||
 D||-------------|------------||
 A||-------------|------------||
 E||-------------|------------||

in their I.R.asses
 
 E||-7--7--7-5/7-|-5-5-5-3-5-|-4--4--4-2/4-|-4-4-4-2-4--||
 B||-7--7--7-5/7-|-5-5-5-3-5-|-5--5--5-3/5-|-5-5-5-3-5--||
 G||-8--8--8-6/8-|-6-6-6-4-6-|-4--4--4-2/4-|-4-4-4-2-4--||
 D||-9--9--9-7-9-|-7-7-7-5-7-|-------------|------------||
 A||-------------|-----------|-------------|------------||
 E||-------------|-----------|-------------|------------|| 

Got a gun on my hip and a rose on my dick, yeah
 
 E||-4--4--4-2/4-|-4-4-4-2-4--||
 B||-5--5--5-3/5-|-5-5-5-3-5--||
 G||-4--4--4-2/4-|-4-4-4-2-4--||
 D||-------------|------------||
 A||-------------|------------||
 E||-------------|------------||

Fuck the Fances in their asshole
Fuck the police in the asshole
 
 E||-5--5--5-3/6-|-5-5-5-3-5--||
 B||-5--5--5-3/5-|-5-5-5-3-5--||
 G||-6--6--6-4/6-|-6-6-6-4-6--||
 D||-7--7--7-5/7-|-7-7-7-5-7--||
 A||-------------|------------||
 E||-------------|------------||

Fuck the pastors
 
 E||-4--4--4-2/4-|-4-4-4-2-4--||
 B||-5--5--5-3/5-|-5-5-5-3-5--||
 G||-4--4--4-2/4-|-4-4-4-2-4--||
 D||-------------|------------||
 A||-------------|------------||
 E||-------------|------------||

touching our baby boys' asses
 
 E||-7--7--7-5/7-|-5-5-5-3-5-|-4--4--4-2/4-|-4-4-4-2-4--||
 B||-7--7--7-5/7-|-5-5-5-3-5-|-5--5--5-3/5-|-5-5-5-3-5--||
 G||-8--8--8-6/8-|-6-6-6-4-6-|-4--4--4-2/4-|-4-4-4-2-4--||
 D||-9--9--9-7-9-|-7-7-7-5-7-|-------------|------------||
 A||-------------|-----------|-------------|------------||
 E||-------------|-----------|-------------|------------|| 

Got a gun on my hip and a rose on my dick, oh yeah
[//]  
 
 E||-4--4--4-2/4-|-4-4-4-2-4--||
 B||-5--5--5-3/5-|-5-5-5-3-5--||
 G||-4--4--4-2/4-|-4-4-4-2-4--||
 D||-------------|------------||
 A||-------------|------------||
 E||-------------|------------||

Fuck Enron and fuck Exxon
Fuck homophobes in their assholes
 
 E||-5--5--5-3/6-|-5-5-5-3-5--||
 B||-5--5--5-3/5-|-5-5-5-3-5--||
 G||-6--6--6-4/6-|-6-6-6-4-6--||
 D||-7--7--7-5/7-|-7-7-7-5-7--||
 A||-------------|------------||
 E||-------------|------------||

Fuck Abe Lincoln
 
 E||-4--4--4-2/4-|-4-4-4-2-4--||
 B||-5--5--5-3/5-|-5-5-5-3-5--||
 G||-4--4--4-2/4-|-4-4-4-2-4--||
 D||-------------|------------||
 A||-------------|------------||
 E||-------------|------------||

?Ahhh! I?m just Kiddin?
 
 E||-7--7--7-5/7-|-5-5-5-3-5-|-4--4--4-2/4-|-4-4-4-2-4--||
 B||-7--7--7-5/7-|-5-5-5-3-5-|-5--5--5-3/5-|-5-5-5-3-5--||
 G||-8--8--8-6/8-|-6-6-6-4-6-|-4--4--4-2/4-|-4-4-4-2-4--||
 D||-9--9--9-7-9-|-7-7-7-5-7-|-------------|------------||
 A||-------------|-----------|-------------|------------||
 E||-------------|-----------|-------------|------------|| 

Got a gun on my sombrero and a rose in a barrel, uh huh
 
 E||-4--4--4-2/4-|-4-4-4-2-4--||
 B||-5--5--5-3/5-|-5-5-5-3-5--||
 G||-4--4--4-2/4-|-4-4-4-2-4--||
 D||-------------|------------||
 A||-------------|------------||
 E||-------------|------------||

Fuck the DA in the asshole
Fuck Davandro in the asshole
 
 E||-5--5--5-3/6-|-5-5-5-3-5--||
 B||-5--5--5-3/5-|-5-5-5-3-5--||
 G||-6--6--6-4/6-|-6-6-6-4-6--||
 D||-7--7--7-5/7-|-7-7-7-5-7--||
 A||-------------|------------||
 E||-------------|------------||

Fuck Red Rogo (?)
 
 E||-4--4--4-2/4-|-4-4-4-2-4--||
 B||-5--5--5-3/5-|-5-5-5-3-5--||
 G||-4--4--4-2/4-|-4-4-4-2-4--||
 D||-------------|------------||
 A||-------------|------------||
 E||-------------|------------||

in the asshol-o
 
 E||-7--7--7-5/7-|-5-5-5-3-5-|-4--4--4-2/4-|-4-4-4-2-4--||
 B||-7--7--7-5/7-|-5-5-5-3-5-|-5--5--5-3/5-|-5-5-5-3-5--||
 G||-8--8--8-6/8-|-6-6-6-4-6-|-4--4--4-2/4-|-4-4-4-2-4--||
 D||-9--9--9-7-9-|-7-7-7-5-7-|-------------|------------||
 A||-------------|-----------|-------------|------------||
 E||-------------|-----------|-------------|------------|| 

Got a gun on my hip and a rose on my dick, alright
Hey, Bo Diddley!
 
 E||-4--4--4-2/4-|-4-4-4-2-4--||
 B||-5--5--5-3/5-|-5-5-5-3-5--||
 G||-4--4--4-2/4-|-4-4-4-2-4--||
 D||-------------|------------||
 A||-------------|------------||
 E||-------------|------------||



 


Important: The song above is NOT stored on the Chordie server. The original song is hosted at www.guitaretab.com. Chordie works as a search engine and provides on-the-fly formatting. Chordie does not index songs against artists'/composers' will. To remove this song please click here.

Text color:
Chord color:
Chord grids: 
Font size:    
Page size: 

A B D E G
Rate #2 of 2 versions

Login - add to songbook

SHARE PAGE  



You need to log in to post comments