Guitar Tabs, Chords and Lyrics
Major upgrade!! After one year development the new version of Chordie is now online! Please give feedback.


Beautiful People  Melanie

Melanie-Beautiful People
Chords:
[C] [Cmaj7] [D7] [F] [G] [E]  
 
 e --0----0----2---1--3--0------|
 b --1----0----1---1--3--0------|
 G --0----0----2---2--0--1------|
 D --2----2----0---3--0--2------|
 A --3----3--------3--2--2------|
 E ----------------1--3--0------|

Intro:
[C] [Cmaj7] [D7] [F]  
 
 e -------------------------------------2---------0-----1---------1---|
 b -----1---------1-----0---------0-----------1---------------1-------|
 G -----------0---------------0-------2-----2---------2-----2---------|
 D ---2-----2---------2-----2-------0-----0-----0---3-----3-----3-----|
 A -3-----3-----3---3-----3-----3-------------------------------------|
 E -------------------------------------------------------------------|

This is a basic way to play the intro chords picking style. This is how she usually plays it live.
Lyrics:
[C] Beautiful Peo[Cmaj7]ple
[D7] You live in the[F] same world as [C]I do
But som[Cmaj7]ehow I[D7] never noticed
[F]You before to[D7]day
I'm ashamed to [F]say[G]
[C] Beautiful peo[Cmaj7]ple
[D7] We share the[F] same back door
And[C] it isn't [E]right
[D7] We never [F]met before
But [D7]then
We may [F]never meet a[G]gain
If I [F]weren't afraid you'd laugh at [G]me
I would [F]run and take all your [G]hands
And [E]I'd gather [D]everyone together for a[A] day
And when we [D]gather'd
I'll pass buttons out that [A]say
[C] Beautiful pe[Cmaj7]ople
[D7] Then you'd never have to [F]be alone
'Cause[C] there'll always be [E]someone
[D7] With the same [F]button on as [D7]you
In[F]clude him in ever[G]ything you do.
[C] Beautiful pe[Cmaj7]ople
[D7] You ride the same[F] subway
As [C]I do ev'ry [E]morning
[D7] That's got to [F]tell you something
[D7] We've got so[F] much in common
[D7] I go the same[F] direction that y[D7]ou do
So if [F]you take care of [G]me
Maybe [F]I'll take care of [G]you
[C] Beautiful pe[Cmaj7]ople
[D7] You look like [F]friends of mine
And[C] it's about [E]time
Th[D7]at someone s[F]aid it he[D7]re and now
I make a [F]vow that some [G]time, somehow
[E] I'll have a [D]meeting
Invite ev'ryone you [A]know
I'll pass out [D]buttons to
The ones who come to [A]show
[C] Beautiful pe[Cmaj7]ople
[D7] Never have to be [F]alone
'Caus[C]e there'll always be[E] someone
[D7] With the same [F]button on as [D7]you
Inc[F]lude him in ev'rything you [G]do
He may be [F]sitting right next to [G]you
He may be [F]beautiful people [G]too
And if you [F]take care of [G]him
Maybe [F]I'll take care of [G]you

Important: The song above is NOT stored on the Chordie server. The original song is hosted at www.guitaretab.com. Chordie works as a search engine and provides on-the-fly formatting. Chordie does not index songs against artists'/composers' will. To remove this song please click here.

Text color:
Chord color:
Chord grids: 
Font size:    
Page size: 

A C Cmaj7 D D7 E F G
Rate #1 of 5 versions

Login - add to songbook

SHARE PAGE  




You need to log in to post comments