Guitar Tabs, Chords and Lyrics
Server problems seems to be fixed. Chordie has been experiencing problems with songs disappearing. These issues now seems to be fixed, but still verifying the fix. If you find anything strange, please email admin@chordie.com.


New York  Melissa Horn

 
 -------------------------------------------------------------------------

NEW YORK ? Melissa Horn
 
 -------------------------------------------------------------------------

Tabbed by: Kengus
Standard tuning
Capo on fifth fret!
INTRO
[C] [G]  
 
 e|----------0---------------0---------------3---------------3-------|
 B|-1---------------1---------------3---------------3----------------|
 G|------0-------0-------0-------0-------0-------0-------0-------0---|
 D|----2-------2-------2-------2-------0-------0-------0-------0-----|
 A|-3------3--------3------3-----------------------------------------|
 E|---------------------------------3------3--------3------3---------|

[Am] [G] [C]  
 
 e|-----------0---------------3---------------0---------------0------|
 B|-0h1--------------3---------------1---------------1---------------|
 G|-------2-------2-------0-------0-------0-------0-------0-------0--|
 D|-----2-------2-------0-------0-------2-------2-------2-------2----|
 A|-0-------0------------------------3------3--------3------3--------|
 E|------------------3------3----------------------------------------|

VERSE I (repeat x2)
[C] [G]  
 
 e|----------0---------------0---------------3---------------3-------|
 B|-1---------------1---------------3---------------3----------------|
 G|------0-------0-------0-------0-------0-------0-------0-------0---|
 D|----2-------2-------2-------2-------0-------0-------0-------0-----|
 A|-3------3--------3------3-----------------------------------------|
 E|---------------------------------3------3--------3------3---------|

[Am] [F] [C]  
 
 e|----------0---------------1---------------0---------------0-------|
 B|-1---------------1---------------1---------------1----------------|
 G|------2-------2-------2-------2-------0-------0-------0-------0---|
 D|----2-------2-------3-------3-------2-------2-------2-------2-----|
 A|-0------0------------------------3------3--------3------3---------|
 E|-----------------1------1-----------------------------------------|

INTERLUDE
[Am] [G/B] [C]  
 
 e|--------------------------0---------------0------|
 B|-0h1------0-0h1--1---------------1---------------|
 G|-----2----------------0-------0-------0-------0--|
 D|-------2------------2-------2-------2-------2----| x2
 A|-0--------2------3------3--------3------3--------|
 E|-------------------------------------------------|

CHORUS (repeat x2)
[C] [G]  
 
 e|----------0---------------0---------------3---------------3-------|
 B|-1---------------1---------------3---------------3----------------|
 G|------0-------0-------0-------0-------0-------0-------0-------0---|
 D|----2-------2-------2-------2-------0-------0-------0-------0-----|
 A|-3------3--------3------3-----------------------------------------|
 E|---------------------------------3------3--------3------3---------|

[Am] [F] [C]  
 
 e|----------0---------------1---------------0---------------0-------|
 B|-1---------------1---------------1---------------1----------------|
 G|------2-------2-------2-------2-------0-------0-------0-------0---|
 D|----2-------2-------3-------3-------2-------2-------2-------2-----|
 A|-0------0------------------------3------3--------3------3---------|
 E|-----------------1------1-----------------------------------------|

INTERLUDE (similar picking)
[Dm] [Am] [G] [C]  
[Dm] [Am] [G]  
[Dm] [Am] [G] [C]  
[Dm] [Am] [G]  
VERSE II
[C] [G]  
 
 e|----------0---------------0---------------3---------------3-------|
 B|-1---------------1---------------3---------------3----------------|
 G|------0-------0-------0-------0-------0-------0-------0-------0---|
 D|----2-------2-------2-------2-------0-------0-------0-------0-----|
 A|-3------3--------3------3-----------------------------------------|
 E|---------------------------------3------3--------3------3---------|

[Am] [F] [C]  
 
 e|----------0---------------1---------------0---------------0-------|
 B|-1---------------1---------------1---------------1----------------|
 G|------2-------2-------2-------2-------0-------0-------0-------0---|
 D|----2-------2-------3-------3-------2-------2-------2-------2-----|
 A|-0------0------------------------3------3--------3------3---------|
 E|-----------------1------1-----------------------------------------|

[C] [G]  
 
 e|----------0---------------0---------------3---------------3-------|
 B|-1---------------1---------------3---------------3----------------|
 G|------0-------0-------0-------0-------0-------0-------0-------0---|
 D|----2-------2-------2-------2-------0-------0-------0-------0-----|
 A|-3------3--------3------3-----------------------------------------|
 E|---------------------------------3------3--------3------3---------|

[Am] [G] [C]  
 
 e|----------0---------------3---------------0---------------0------|
 B|-1---------------3---------------1---------------1---------------|
 G|------2-------2-------0-------0-------0-------0-------0-------0--|
 D|----2-------2-------0-------0-------2-------2-------2-------2----|
 A|-0------0------------------------3------3--------3------3--------|
 E|-----------------3------3----------------------------------------|

INTERLUDE (similar picking)
[Dm] [Am] [G] [C]  
[Dm] [Am] [G]  
[Dm] [Am] [G] [C]  
[Dm] [Am] [G]  
OUTRO
[C] [G]  
 
 e|----------0---------------0---------------3---------------3-------|
 B|-1---------------1---------------3---------------3----------------|
 G|------0-------0-------0-------0-------0-------0-------0-------0---|
 D|----2-------2-------2-------2-------0-------0-------0-------0-----|
 A|-3------3--------3------3-----------------------------------------|
 E|---------------------------------3------3--------3------3---------|

[Am] [G] [C]  
 
 e|----------0---------------3---------------0---------|
 B|-1---------------3---------------1---------------1--|
 G|------2-------2-------0-------0-------0-------0-----|
 D|----2-------2-------0-------0-------2-------2-------|
 A|-0------0------------------------3------3--------3--|
 E|-----------------3------3---------------------------|

***
INTRO
[C] [G] [Am] [G] [C]  
VERSE I
Vi sätter oss n[C]er, utan ett or[G]d
Som så många gånger [Am]förr
Du beställer ett glas [F]vin och jag en kopp [C]te
Och fast vi båda v[C]ill mer än någonting [G]annat
Så står det skrivet i [Am]pannan
Att man väcker en ån[F]gest när man släcker en an[C]nan
INTERLUDE
Am G/B C x2
CHORUS
Vi har blivit som [C]dom, någon tittar på [G]oss
Är det min tanke hon s[Am]er eller dina röda k[F]inder som avslöjar[C] mer?
Vi har blivit som[C] dom, som aldrig får[G] bli
Som sitter tyst på nåt ca[Am]fé, ingen får ju [F]se att han är gift och hon är[C] fri
INTERLUDE
[Dm] [Am] [G] [C]  
[Dm] [Am] [G]  
[Dm] [Am] [G] [C]  
[Dm] [Am] [G]  
VERSE II
När jag går däri[C]från och du håller[G] kvar
Så vet vi båda t[Am]vå, det är såhär man [F]mår när man hemligheter h[C]ar
När jag går däri[C]från, utan ett or[G]d
Så vet vi båda[Am] två, [G] mmm[C]
INTERLUDE
[Dm] [Am] [G] [C]  
[Dm] [Am] [G]  
[Dm] [Am] [G] [C]  
[Dm] [Am] [G]  
OUTRO
När jag går däri[C]från, utan ett or[G]d
Så vet vi båda [Am]två, [G] mmm[C].
=========================================================================
Comment, rate, appreciate!

Important: The song above is NOT stored on the Chordie server. The original song is hosted at www.guitaretab.com. Chordie works as a search engine and provides on-the-fly formatting. Chordie does not index songs against artists'/composers' will. To remove this song please click here.

Text color:
Chord color:
Chord grids: 
Font size:    
Page size: 

Am C Dm F G G/B
Rate #1 of 6 versions

Jango Player

Login - add to songbook

SHARE PAGE  



You need to log in to post comments