Guitar Tabs, Chords and Lyrics
Major upgrade!! After one year development the new version of Chordie is now online! Please give feedback.


Vile   Melvins

 
 |---------------------------------------------------------------|
 |---------------------------------------------------------------|
 |---------------------------------------------------------------|
 |-3^~~-0~~-0-0-3^~~-0-3^~~-0~~-6~~-5~~-0-0-3^~~-0-0-6~~---------| x2
 |-3^~~-0~~-0-0-3^~~-0-3^~~-0~~-6~~-5~~-0-0-3^~~-0-0-6~~-6~~-5~~-|
 |-3^~~-0~~-0-0-3^~~-0-3^~~-0~~-6~~-5~~-0-0-3^~~-0-0-6~~---------|

 


 PM. PM.


 [1] [2]  

 
 |-------------------------------------------|---------|-----|
 |-------------------------------------------|---------|-----|
 |-------------------------------------------|---------|-----|
 |-0-0-0-0-----3~~-0-0-0-6~~-5~~-6~~-3-0-3-0-|-0-0-----|-3-0-|
 |-0-0-0-0-6~~-3~~-0-0-0-6~~-5~~-6~~-3-0-3-0-|-0-0-6~~-|-3-0-|
 |-0-0-0-0-----3~~-0-0-0-6~~-5~~-6~~-3-0-3-0-|-0-0-----|-3-0-|

 


 PM..... PM.


 


 Verse -


 


 

 
 |---------|
 |---------|
 |---------|

 


 |-0-0-0-0-| repeat a lot of times


 |-0-0-0-0-|


 |-0-0-0-0-|


 PM.....


 


 This section comes in a few times -


 


 |-----|


 |-----|


 |-----|


 |-0~~-|


 |-0~~-|


 |-0~~-|


 w/bar


 


 After a couple of those this riff comes in -


 


 

 
 |----------------------------------------------------------------|
 |----------------------------------------------------------------|
 |----------------------------------------------------------------|
 |----------------------------------------------------------------|
 |-6^---6^----------6~~---------6~~----------6~~---------6~~------|
 |----0----3^-0-0-0-----5~~-6~~-----3^-0-0-0-----5~~-6~~-----3^-0-|
 |---------|
 |---------|
 |---------|

 


 |-0-0-0-0-| repeat a lot of times


 |-0-0-0-0-|


 |-0-0-0-0-|


 PM.....


 


 

 
 |---------------|
 |---------------|
 |---------------|
 |---------------|
 |-6-6-6-6-6-4-5-|
 |---------------|
 |---------|
 |---------|
 |---------|

 


 |-0-0-0-0-| repeat a lot of times


 |-0-0-0-0-|


 |-0-0-0-0-|


 PM.....


 


 

 
 |---------------|
 |---------------|
 |---------------|
 |---------------|
 |-6-6-6-6-6-4-5-|
 |---------------|


Important: The song above is NOT stored on the Chordie server. The original song is hosted at www.guitaretab.com. Chordie works as a search engine and provides on-the-fly formatting. Chordie does not index songs against artists'/composers' will. To remove this song please click here.

This song is displayed as text-only. Transposing and tuning is only available for chordpro-songs.
Rate #1 of 1 versions

Jango Player

Login - add to songbook

SHARE PAGE  




You need to log in to post comments