Guitar Tabs, Chords and Lyrics
Major upgrade!! After one year development the new version of Chordie is now online! Please give feedback.


With Teeth   Melvins

 
 e|---------------------------------|---------------------------------|
 b|---------------------------------|---------------------------------|
 g|---------------------------------|---------------------------------|
 d|---------------------------------|---------------------------------|
 A|-0-0-0-0-0-0-0-0-0-0-0-0-0-0-0-0-|-0-0-0-0-0-0-0-0-0-0-0-0-0-0-0-0-|
 D|-0-0-0-0-0-0-0-0-0-0-0-0-0-0-0-0-|-0-0-0-0-0-0-0-0-0-0-0-0-0-0-0-0-|

 


 x x x x x x x x x x x x x x x x x x x x x x x x x x x x x x x x


 


 Riff 1 - repeat about 9 or 10 times


 


 [1] [+] [2] [+] [3] [+] [4] [+] [1] [+] [2] [+] [3] [+] [4] [+]  

 
 e|---------------------------------|---------------------------------|
 b|---------------------------------|---------------------------------|
 g|---------------------------------|---------------------------------|
 d|-5-----------4-----------5-------|-5-----------9-----------5-------|
 A|-3-----------2-----------3---0---|-3-----------7-----------3-------|
 D|-0-----------0-----------0---0---|-0-----------0-----------0-------|
 e|---------------------------------|---------------------------------|
 b|---------------------------------|---------------------------------|
 g|---------7---------------7-------|-7-----------7-----------7-------|
 d|---------7---------------7-------|-7-----------7-----------7-------|
 A|---------5-----------0---5---0---|-5-----------5-------0---5---0---|
 D|-0-0-0---0-----------0---0---0---|-0-----------0-------0---0---0---|

 


 x x x


 


 Then:


 [1] [+] [2] [+] [3] [+] [4] [+] [1] [+] [2] [+] [3] [+] [4] [+]  

 
 e|---------------------------------|---------------------------------|
 b|---------------------------------|---------------------------------|
 g|---------------------------------|---------------------------------|
 d|---------------------------------|-6-------6---6-------6---6-------|
 A|-0-0-0-0-0-0-6-------6---6---6-6-|-6-------6---6-------6---6-------|
 D|-0-0-0-0-0-0-6-------6---6---6-6-|-6-0-0-0-6-0-6-0-0-0-6-0-6-0-0-0-|

 


 x x x x x x x x x x x


 


 [1] [+] [2] [+] [3] [+] [4] [+] [1] [+] [2] [+] [3] [+] [4] [+]  

 
 e|---------------------------------|---------------------------------|
 b|---------------------------------|---------------------------------|
 g|---------------------------------|---------------------------------|
 d|-7-7-7-7-7-7---------------------|-6-------6---6-------6---6-------|
 A|-5-5-5-5-5-5-6-------6---6---6-6-|-6-------6---6-------6---6-------|
 D|-------------6-------6---6---6-6-|-6-0-0-0-6-0-6-0-0-0-6-0-6-0-0-0-|

 


 x x x x x x x x x x x


 


 [1] [+] [2] [+] [3] [+] [4] [+] [1]  

 
 e|---------------------------------|-----|
 b|---------------------------------|-----|
 g|---------------------------------|-----|
 d|---------------------------------|-----|
 A|-0-0-0-0-0-0-6-------6---6---6-6-|-0-0-|"Like siz the well known one
 D|-0-0-0-0-0-0-6-------6---6---6-6-|-0-0-| Like siz the well...

 


 


 ...known one!"


 

 
 e|-----------|
 b|-----------|
 g|-----------|
 d|-----------|
 A|-2---------|
 D|-2/----12--|
 e|---------------------------------|-----|
 b|---------------------------------|-----|
 g|---------------------------------|-----|
 d|---------------------------------|-----|
 A|-0-0-0-0-0-0-6-------6---6---6-6-|-0-0-|"Like siz the well known one
 D|-0-0-0-0-0-0-6-------6---6---6-6-|-0-0-| Like siz the well known one!"


Important: The song above is NOT stored on the Chordie server. The original song is hosted at www.guitaretab.com. Chordie works as a search engine and provides on-the-fly formatting. Chordie does not index songs against artists'/composers' will. To remove this song please click here.

This song is displayed as text-only. Transposing and tuning is only available for chordpro-songs.
Rate #1 of 3 versions

Jango Player

Login - add to songbook

SHARE PAGE  



You need to log in to post comments