Guitar Tabs, Chords and Lyrics
Server problems seems to be fixed. Chordie has been experiencing problems with songs disappearing. These issues now seems to be fixed, but still verifying the fix. If you find anything strange, please email admin@chordie.com.


All Our Wonder  Memoryhouse

 
 -------------------------------------------------------------------------------

All our Wonder - Memoryhouse
 
 -------------------------------------------------------------------------------

Tabbed by: BotoinBosnia
E-mail: botoinbosnia@gmail.com
This tab is from Memoryhouse's live acoustic version of
the song which I liked so much that I had to share it
listen to it if you have not already.
http://www.youtube.com/watch?v=3PyEaO2E7P4
Tuning: standard
CHORDS USED:
(AM7)(AM7*)(A7)(Bm)(Bm7)(Bm9)(Cm)(Cm7)(C#m)(C#m7)(C#m9)(DM7)
 
 e|-----0----5----0---2----7----9---3----8----4----9-----11----5---|
 B|-----2----5----2---3----7----7---4----8----5----9------9----7---|
 G|-----1----6----0---4----7----7---5----8----6----9------9----6---|
 D|-----2----6----2---4----7----7---5----8----6----9------9----7---|
 A|-----0----7----0---2----9----9---3----10---4---11-----11----5---|
 E|-----x----5----x---2----7----7---3----8----4----9------9----5---|

Intro
 
 e|--0--------------0----0-------------0---2-----------4------4-4-4----------|
 B|--2----0----2---------2----0----2-------3-----------5------5-5-5----------|
 G|--0-------------------1-----------------4-----------6------6-6-6----------|
 D|--2-------------------2-----------------4-----------6------6-6-6----------|
 A|----------------------------------------2-----------4------4-4-4----------|
 E|----------------------------------------2-----------4------4-4-4----------|
 e|--0--------------0----0-------------0---2--2-2-2-3---4--4-4-4-4-4---------|
 B|--2----0----2---------2----0----2-------3--3-3-3-4---5--5-5-5-5-5---------|
 G|--0-------------------1-----------------4--4-4-4-5---6--6-6-6-6-6---------|
 D|--2-------------------2-----------------4--4-4-4-5---6--6-6-6-6-6---------|
 A|----------------------------------------2--2-2-2-3---4--4-4-4-4-4---------|
 E|----------------------------------------2--2-2-2-3---4--4-4-4-4-4---------|

Verse 1
[DM7] You were[AM7] always the [Bm]good one[C#m]
[DM7] And no[AM7]w you are the[Bm] lonely one[C#m], and so am I
[DM7] You di[AM7]g your heel[Bm] [C#m]
[DM7] If walls[AM7] could feel[Bm], it'[C#m]d hit like thunder
Intro
 
 e|--0--------------0----0-------------0---2-----------4------4-4-4----------|
 B|--2----0----2---------2----0----2-------3-----------5------5-5-5----------|
 G|--0-------------------1-----------------4-----------6------6-6-6----------|
 D|--2-------------------2-----------------4-----------6------6-6-6----------|
 A|----------------------------------------2-----------4------4-4-4----------|
 E|----------------------------------------2-----------4------4-4-4----------|
 e|--0--------------0----0-------------0---2--2-2-2-3---4--4-4-4-4-4---------|
 B|--2----0----2---------2----0----2-------3--3-3-3-4---5--5-5-5-5-5---------|
 G|--0-------------------1-----------------4--4-4-4-5---6--6-6-6-6-6---------|
 D|--2-------------------2-----------------4--4-4-4-5---6--6-6-6-6-6---------|
 A|----------------------------------------2--2-2-2-3---4--4-4-4-4-4---------|
 E|----------------------------------------2--2-2-2-3---4--4-4-4-4-4---------|

Verse2
[DM7] You su[AM7]ffered in s[Bm]ilence[C#m]
[DM7] Two thoughts[AM7] it was the s[Bm]ound of one[C#m], but not enough
[DM7] Insid[AM7]e your he[Bm]art[C#m]
[DM7] Can't fake[AM7] a part[Bm] [C#m]
Pre-Chorus
Ahhhhhh Ahhhhhhh Ahhhhhh ahhh Ahhhhhhhh
 
 e|---------------9------------------9-------------10-----------9------------|
 B|------------10----10-----------9-----9--------9----9-------8--------------|
 G|---------11-----------------9--------------10------------9----------------|
 D|------0----------------------------------0-------------0------------------|
 A|------------------------0-------------------------------------------------|
 E|--------------------------------------------------------------------------|

Ahhhhhhh Ahhhhhhh Ahhhhhhh ahhhh Ahhhhh
 
 e|---------------9--------------9-------9-----9-7---7-7-7-------------------|
 B|------------10---10-------------9-----7-----7-6---6-6-6-------------------|
 G|---------11----------------9----------8-----8-7---7-7-7-------------------|
 D|------0-------------------------------------------------------------------|
 A|------------------------0-------------------------------------------------|
 E|--------------------------------------------------------------------------|

Chorus
DM7 AM7* Bm7 In Chorus Play Bm9,Bm7,Bm9,Bm7
No more silence in me after Bm7's
DM7 AM7* Bm7
No more silence in me In chorus play C#m9,C#m7,C#m9,C#m7
after C#m7's
DM7 AM7* Bm7
No more silence in me
DM7 AM7* Bm7
No more silence in me
We're n[C#m7]ot the l[Cm7]ucky on[Bm7]es
[Cm7] We'll [C#m7]never be[Cm7] the lu[Bm7]cky ones[DM7]
Bridge: AM7*,Bm7 x2
Verse 3
(First 2 lines strum once)
[A7]What you f[AM7]ound was a wa[Bm]y out[C#m]
[A7] Not m[AM7]uch, but it's the t[Bm]hought t[Cm]hat cou[C#m]nts, and so I try
[DM7] To mak[AM7]e a star[Bm]t[C#m]
[DM7] To fak[AM7]e a part[Bm] [Cm]
[C#m] Hope it ends well ...
(Short Pause)
Palm Mute Strum ...
Chorus
DM7 AM7* Bm7
No more silence in me
In Chorus Play Bm9,Bm7,Bm9,Bm7
DM7 AM7* Bm7 after Bm7's
No more silence in me
DM7 AM7* Bm7
No more silence in me
DM7 AM7* Bm7
No more silence in me
We're n[C#m]ot the lu[Cm]cky [Bm]ones
[Cm] We'll [C#m]never be [Cm]the l[Bm]ucky ones[DM7] [AM7]
************************************
| / slide up
| \ slide down
| H hammer-on
| p pull-off
| ~ vibrato
| + harmonic
| x Mute note
| B Bend
| pb Pre-bend
| br Bend release
| pbr Pre-bend release
| brb Bend release bend
************************************

Important: The song above is NOT stored on the Chordie server. The original song is hosted at www.guitaretab.com. Chordie works as a search engine and provides on-the-fly formatting. Chordie does not index songs against artists'/composers' will. To remove this song please click here.

Text color:
Chord color:
Chord grids: 
Font size:    
Page size: 

A7 Am7 Bm Bm7 C#m C#m7 Cm Cm7 Dm7
Rate #1 of 1 versions

Login - add to songbook

SHARE PAGE  




You need to log in to post comments