Guitar Tabs, Chords and Lyrics
Major upgrade!! After one year development the new version of Chordie is now online! Please give feedback.


Leper Messiah  Metallica

Transcribed by Zac B. for www.mikesguitarsite.co.uk
Words and Music by Hetfield and Ulrich
Gtr I (E A D G B E) - 'James Hetfield'
Gtr II (E A D G B E) - 'Kirk Hammett'
Intro
Moderate Rock Q=136
[4/4] Gtrs I, II
PM| PM| PM| PM|
H. E E Q E E Q Q +H. E E Q E E H +H. E E
 
 |-------------|--------------|--------------|-------------|---------------|
 |-------------|--------------|--------------|-------------|---------------|
 |-------------|-----------2--|-(2)----------|-------------|---------------|
 |-------------|-5------5--2--|-(2)----------|-5------5----|-(5)-----------|
 |---------2-2-|-5--2-2-5--0--|-(0)------2-2-|-5--2-2-5----|-(5)------2-2--|
 |---------0-0-|-3--0-0-3-----|----------0-0-|-3--0-0-3----|-(3)------0-0--|

PM| PM| PM|[3/4]
|-3-|
Q E E Q Q +H. E E Q E E Q E E E E E E E E E
 
 |--------------|--------------|---------------|---------------||
 |--------------|--------------|---------------|---------------||
 |--------------|--------------|--------2------|---------------||
 |-5------5--3--|-(3)----------|-5------2------|---------------||
 |-5--2-2-5--3--|-(3)------2-2-|-5--2-2-0--2-2-|-----2---------||
 |-3--0-0-3--1--|-(1)------0-0-|-3--0-0----0-0-|-5-3---5-3-2-1-||

[4/4] PM| PM PM----| PM
Q E E E E Q E E E E E E Q Q E E E E Q E E E E E E E E
 
 ||----------------|----------------|---------------|-------------------||
 ||o---------------|----------------|---------------|------------------o||
 ||----------------|----------------|---------------|-------------------||
 ||--2--4---4---4--|-----4---4-5-4--|-2----------4--|-----4---4-5-4-4---||
 ||o-2--4---4-3-4--|-----4---4-5-4--|-2--------3-4--|-----4---4-5-4-4--o||
 ||--0--2---2---2--|-2---2---2-3-2--|-0--0-0-2---2--|-2---2---2-3-2-2---||

W +W +W
 
 |----------|------------|------------|
 |----------|------------|------------|
 |----------|------------|------------|
 |-2--------|-(2)--------|-(2)--------|
 |-2--------|-(2)--------|-(2)--------|
 |-0--------|-(0)--------|-(0)--------|

PM| PM| PM|
+W +Q E E Q E E Q E E H
 
 |------------|-----------------|-------------|
 |------------|-----------------|-------------|
 |------------|-----------------|-------------|
 |-(2)--------|-(2)-------------|-------------|
 |-(2)--------|-(2)--2-2----2-2-|----2-2------|
 |-(0)--------|-(0)--0-0----0-0-|----0-0------|

PM| PM| PM| PM| PM| [5/4] PM|
Q E E Q E E Q E E H Q E E Q E E E E Q E E Q E E
 
 ||----------------|--------------||---------------|---------------------|
 ||o---------------|-------------o||---------------|---------------------|
 ||----------------|--------------||---------------|------------2--5-----|
 ||----------------|--------------||---------------|-3-2-5------2--5-----|
 ||o----2-2----2-2-|----2-2------o||----2-2----2-2-|-3-2-5--3-2-0--3-----|
 ||-----0-0----0-0-|----0-0-------||----0-0----0-0-|-1-0-3--1-0----------|

[4/4] PM| PM| PM--|
Q Q Q Q Q Q Q Q
 
 |-------------------|----------------------|
 |-------------------|----------------------|
 |-------------------|----------------------|
 |-2--------2--------|-2----------2----3-5--|
 |-3p2------3p2------|-3p2--------3p2--3-5--|
 |------0-0------0-0-|------0-0-0------1-3--|

S E. E E S E. E E S E. E S S S E. S E.
 
 PM| PM------| PM|

Q Q Q Q E E Q E E Q
 
 |-------------------|----------------||
 |-------------------|----------------||
 |-------------------|------------2---||
 |-2--------2--------|-----5------2---||
 |-3p2------3p2------|-----5------0---||
 |------0-0------0-0-|-1-0-3--1-0-----||

S E. E E S E. E E
1st,2nd Verses
PM| PM| PM--|
Q Q Q Q Q Q Q Q
 
 ||--------------------|----------------------|
 ||o-------------------|----------------------|
 ||--------------------|----------------------|
 ||--2--------2--------|-2----------2----3-5--|
 ||o-3p2------3p2------|-3p2--------3p2--3-5--|
 ||-------0-0------0-0-|------0-0-0------1-3--|

S E. E E S E. E E S E. E S S S E. S E.
|-Rhy Fig 1
PM PM PM
S E. E E S E. E E S E. E E S E. S E.
 
 |-------------------|--------------------|
 |-------------------|--------------------|
 |-------------------|--------------------|
 |-------------------|--------------------|
 |-5s4------5s4------|-5s4------5s4--4s5--|
 |-3s2--2-2-3s2--2-2-|-3s2--2-2-3s2--2s3--|

end Rhy Fig 1-|
Rhy Fig 1 x3
[B] [B] [B] [B] [B] [B] [B] [B]  
 
 |-----------|-----------|-----------|-----------||
 |-----------|-----------|-----------|-----------||
 |------8----|-7----6----|------8----|-7----6----||
 |-9----8----|-7----6----|-9----8----|-7----6----||
 |-7----6----|-5----4----|-7----6----|-5----4----||
 |-0---------|-----------|-0---------|-----------||

Chorus
PM| PM| PM| PM| PM| PM| PM| PM|
Q E E S E. E E S E. E E S E. E E Q E E S E. E E S E. E E S E. E E
 
 |-----------------|-------------------|-----------------|-------------------|
 |-----------------|-------------------|-----------------|-------------------|
 |-----------------|-------------------|-----------------|-------------------|
 |-9------9s8------|-8-7------7-6------|-9------9s8------|-8S7------7-6------|
 |-7------7s6------|-6-5------5-4------|-7------7s6------|-6S5------5-4------|
 |-7--0-0-7s6--0-0-|-6-5--0-0-5-4--0-0-|-7--0-0-7s6--0-0-|-6S5--0-0-5-4--0-0-|
 PM--| PM--| PM--| PM--|

Q E S S S E. E S S S E. E S S S E. E S S
 
 |---------------------|-----------------------|
 |---------------------|-----------------------|
 |-9--------9s8--------|-8-7--------7-6--------|
 |-9--------9s8--------|-8-7--------7-6--------|
 |-7--------7s6--------|-6-5--------5-4--------|
 |-7--0-0-0-7s6--0-0-0-|-6-5--0-0-0-5-4--0-0-0-|
 PM PM| PM PM| PM----| PM----|

Q S S S S S E. S S S S S E. S S S S S E. S S S S
 
 |-------------------------|---------------------------|
 |-------------------------|---------------------------|
 |-------------------------|---------------------------|
 |-9----------9s8----------|-8s7----------7-6----------|
 |-7----------7s6----------|-6s5----------5-4----------|
 |-7--0-0-0-0-7s6--0-0-0-0-|-6s5--0-0-0-0-5-4--0-0-0-0-|
 PM----| PM----| PM----| PM----|

S E. S S S S S E. S S S S S E. S S S S S E. S S S S
 
 |---------------------------|---------------------------|
 |---------------------------|---------------------------|
 |---------------------------|---------------------------|
 |---------------------------|---------------------------|
 |-6-5----------6s5----------|-6-5----------6s5----------|
 |-4-3--3-3-3-3-4s3--3-3-3-3-|-4-3--3-3-3-3-4s3--3-3-3-3-|

PM| PM
Q E E E E Q E E E E E E Q
 
 |---------------|-----------------|
 |---------------|-----------------|
 |---------------|-----------------|
 |-2--4---4---4--|-----4---4-5-4---|
 |-2--4---4-3-4--|-----4---4-5-4---|
 |-0--2---2---2--|-2---2---2-3-2---|

PM----| PM PM| [5/4] PM PM|
Q E E E E Q E E E E E E E E Q E E E E Q E E E E E E Q E E
 
 |---------------|-----------------|---------------|--------------------|
 |---------------|-----------------|---------------|--------------------|
 |---------------|-----------------|---------------|--------------------|
 |-2----------4--|-----4---4-5-4-4-|-2--4---4---4--|-----4---4-5-4------|
 |-2--------3-4--|-----4---4-5-4-4-|-2--4---4-3-4--|-----4---4-5-4--2-2-|
 |-0--0-0-2---2--|-2---2---2-3-2-2-|-0--2---2---2--|-2---2---2-3-2--0-0-|

[4/4] [3/4] [4/4]  
 
 PM| PM----------------|
 |-3-| |-3-| |-3-| |-3-|

Q E E Q E E E E E E E E E H. E E E Q E E E Q E E E
 
 |---------------|----------------||---------------|-------------------||
 |---------------|---------------o||---------------|-------------------||
 |--------2------|----------------||---------------|-------------------||
 |-5------2------|----------------||-2-------------|-2--------2--------||
 |-5--2-2-0--2-2-|-----2---------o||-2-------------|-2--------2--------||
 |-3--0-0----0-0-|-5-3---5-3-2-1--||-0-------3-2-1-|-0--3-2-1-0--3-2-1-||

Interlude
Faster Q=184
Gtr II
 
 PM----| ~ PM-----| ~ PM----| ~ PM------------|

[E] [E] [E] [E] [B] [E] [E] [E] [E] [B] [E] [E] [E] [E] [B] [E] [E] [E] [E] [E] [E] [E] [E]  
 
 |--------------|----------------|--------------|-----------------|
 |--------------|----------------|--------------|-----------------|
 |---4-0--------|-----4-0--------|---4-0--------|-----4---5---4-5-|
 |-2-----4-2----|--2------4-2----|-2-----4-3----|-7-5---7---7-----|
 |--------------|----------------|--------------|-----------------|
 |--------------|----------------|--------------|-----------------|

|
| Gtr I
| W +W W H H
 
 |--------------|----------------|--------------|-----------------|
 |--------------|----------------|--------------|-----------------|
 |--------------|----------------|--------------|-----------------|
 |--------------|----------------|--------------|---------2-------|
 |-2------------|-(2)------------|-3------------|-5-------0-------|
 |-0------------|-(0)------------|-1------------|-3---------------|

Gtr II
 
 PM----| ~ PM-----| ~ PM----| ~ PM------------|

[E] [E] [E] [E] [B] [E] [E] [E] [E] [B] [E] [E] [E] [E] [B] [E] [E] [E] [E] [E] [E] [E] [E]  
 
 |--------------|----------------|--------------|-----------------|
 |--------------|----------------|--------------|-----------------|
 |---4-0--------|-----4-0--------|---4-4-3-2----|-----4---5---4-5-|
 |-2-----4-2----|--2------4-2----|-2------------|-7-5---7---7-----|
 |--------------|----------------|--------------|-----------------|
 |--------------|----------------|--------------|-----------------|

|
| Gtr I
| W +W W H H
 
 |--------------|----------------|--------------|-----------------|
 |--------------|----------------|--------------|-----------------|
 |--------------|----------------|--------------|---------4-------|
 |--------------|----------------|-7------------|-2-------4-------|
 |-2------------|-(2)------------|-5------------|-0-------2-------|
 |-0------------|-(0)------------|--------------|-----------------|

Gtr II
 
 PM----| ~ PM----| ~ PM----| ~ PM------------|

[E] [E] [E] [E] [B] [E] [E] [E] [E] [B] [E] [E] [E] [E] [B] [E] [E] [E] [E] [E] [E] [E] [E]  
 
 |--------------|--------------|--------------|-----------------|
 |--------------|--------------|--------------|-----------------|
 |---4-0--------|---4-0--------|---4-0--------|-----4---5---4-5-|
 |-2-----4-2----|-2-----4-2----|-2-----4-3----|-7-5---7---7-----|
 |--------------|--------------|--------------|-----------------|
 |--------------|--------------|--------------|-----------------|

|
| Gtr I
| W E E Q H W H H
 
 |--------------|--------------|--------------|-----------------|
 |--------------|--------------|--------------|-----------------|
 |--------------|--------------|--------------|-----------------|
 |--------------|--------------|--------------|---------2-------|
 |-2------------|-2-2----------|-3------------|-5-------0-------|
 |-0------------|-0-0----------|-1------------|-3---------------|

Gtr II
 
 PM----| ~ PM----| ~ PM----| ~

E E E E H E E E E H E E E E H S E. E S T T Q Q
 
 |--------------|--------------|--------------|----------------------|
 |--------------|--------------|--------------|----------------------|
 |---4-0--------|---4-0--------|---4-4-3-2----|----------------------|
 |-2-----4-2----|-2-----4-2----|-2------------|-2-2--2---4-4-4--4----|
 |--------------|--------------|--------------|-0-0--0---2-2-2--2----|
 |--------------|--------------|--------------|----------------------|

|
| Gtr I
| W E E Q H W S E. E S T T Q Q
 
 |--------------|--------------|--------------|----------------------|
 |--------------|--------------|--------------|----------------------|
 |--------------|--------------|--------------|----------------------|
 |--------------|--------------|-7------------|-2-2--2---4-4-4--4----|
 |-2------------|-2-2----------|-5------------|-0-0--0---2-2-2--2----|
 |-0------------|-0-0----------|--------------|----------------------|

Bridge
Gtrs I, II
 
 PM----| PM----| PM----| PM----|

S S S S Q S S S S Q S S S S Q S S S S Q
 
 ||------------------------|-----------------------|
 ||o-----------------------|-----------------------|
 ||------------------------|-----------------------|
 ||----------2----------2--|---------2----------2--|
 ||o---------2----------2--|---------2----------2--|
 ||--0-0-0-0-0--0-0-0-0-0--|-0-0-0-0-0--0-0-0-0-0--|
 PM----| PM----| PM----| PM----|

S S S S Q S S S S Q S S S S Q S S S S Q
 
 |-----------------------|-------------------------|
 |-----------------------|-------------------------|
 |-----------------------|-------------------------|
 |---------3----------3--|---------5----------7----|
 |---------3----------3--|---------5----------7----|
 |-1-1-1-1-1--1-1-1-1-1--|-3-3-3-3-3--5-5-5-5-5----|
 PM----| PM----| PM----| PM----|

S S S S Q S S S S Q S S S S Q S S S S Q
 
 |-----------------------|-----------------------|
 |-----------------------|-----------------------|
 |-----------------------|-----------------------|
 |---------2----------2--|---------2----------2--|
 |---------2----------2--|---------2----------2--|
 |-0-0-0-0-0--0-0-0-0-0--|-0-0-0-0-0--0-0-0-0-0--|
 PM----| PM----|

S S S S Q S S S S Q S E. E S T T Q Q
 
 |-----------------------|----------------------||
 |-----------------------|---------------------o||
 |---------7----------7--|----------------------||
 |---------7----------7--|-2-2--2---4-4-4--4----||
 |-5-5-5-5-5--5-5-5-5-5--|-0-0--0---2-2-2--2---o||
 |-----------------------|----------------------||

Guitar Solo
Gtr II
 
 |--3--| |--3--| |--3--| |--3--| |--3--| |--3--| |--3--| |--3--|

[E] [E] [E] [E] [E] [E] [E] [E] [E] [E] [E] [E] [E] [E] [E] [E] [E] [E] [E] [E] [E] [E] [E] [E]  
 
 |-19p15----------15-19p15----------15-|-19p15----------15-19p15----------15-|
 |-------17----17----------17----17----|-------17----17----------17----17----|
 |----------16----------------16-------|----------16----------------16-------|
 |-------------------------------------|-------------------------------------|
 |-------------------------------------|-------------------------------------|
 |-------------------------------------|-------------------------------------|

|
| Gtr I
 
 | PM------------------------------------------------------------------------
 | |--3--| |--3--| |--3--| |--3--| |--3--| |--3--| |--3--| |--3--|

| Q E Q E Q E Q E Q E Q E Q E Q E
 
 |-------------------------------------|-------------------------------------|
 |-------------------------------------|-------------------------------------|
 |-------------------------------------|-------------------------------------|
 |-------------------------------------|-------------------------------------|
 |--2-----2--2-----2--2-----2--2-----2-|--2-----2--2-----2--2-----2--2-----2-|
 |--0-----0--0-----0--0-----0--0-----0-|--0-----0--0-----0--0-----0--0-----0-|

|-Rhy Fig 2
 
 |--3--| |--3--| |--3--| |--3--| |--3--| |--3--| |--3--| |--3--|

[E] [E] [E] [E] [E] [E] [E] [E] [E] [E] [E] [E] [E] [E] [E] [E] [E] [E] [E] [E] [E] [E] [E] [E]  
 
 |-20p17----------17-20p17----------17-|-22p19----------19-22p19----------19----|
 |-------18----15----------18----18----|-------20----20----------20----20-------|
 |----------17----------------17-------|----------19----------------19----------|
 |-------------------------------------|----------------------------------------|
 |-------------------------------------|----------------------------------------|
 |-------------------------------------|----------------------------------------|

|
 
 |------------------------------------------------------------------------|
 | |--3--| |--3--| |--3--| |--3--| |--3--| |--3--| |--3--| |--3--|

| Q E Q E Q E Q E Q E Q E Q E Q E
 
 |-------------------------------------|----------------------------------------|
 |-------------------------------------|----------------------------------------|
 |-------------------------------------|----------------------------------------|
 |-------------------------------------|--------------------2-----2--2-----2----|
 |--3-----3--3-----3--3-----3--3-----3-|--5-----5--5-----5--0-----0--0-----0----|
 |--1-----1--1-----1--1-----1--1-----1-|--3-----3--3-----3----------------------|
 |--3--| |--3--| |--3--| |--3--| |--3--| |--3--| |--3--| |--3--|

[E] [E] [E] [E] [E] [E] [E] [E] [E] [E] [E] [E] [E] [E] [E] [E] [E] [E] [E] [E] [E] [E] [E] [E]  
 
 |-19p15----------15-19p15----------15-|-19p15----------15-19p15----------15-|
 |-------17----17----------17----17----|-------17----17----------17----17----|
 |----------16----------------16-------|----------16----------------16-------|
 |-------------------------------------|-------------------------------------|
 |-------------------------------------|-------------------------------------|
 |-------------------------------------|-------------------------------------|

|
 
 | PM------------------------------------------------------------------------
 | |--3--| |--3--| |--3--| |--3--| |--3--| |--3--| |--3--| |--3--|

| Q E Q E Q E Q E Q E Q E Q E Q E
 
 |-------------------------------------|-------------------------------------|
 |-------------------------------------|-------------------------------------|
 |-------------------------------------|-------------------------------------|
 |-------------------------------------|-------------------------------------|
 |--2-----2--2-----2--2-----2--2-----2-|--2-----2--2-----2--2-----2--2-----2-|
 |--0-----0--0-----0--0-----0--0-----0-|--0-----0--0-----0--0-----0--0-----0-|

S S S S S S S S S S S S S S S S
 
 |-22-20-19---17-21-19-17------19-16---------17------------|
 |--------------------------20-------20---19----20-19---17-|
 |---------------------------------------------------------|
 |---------------------------------------------------------|
 |---------------------------------------------------------|
 |---------------------------------------------------------|

|
 
 |----------------------------------------------------|
 | |---3---| |---3---| |---3---| |---3---|

| Q E Q E Q E Q E
 
 |---------------------------------------------------------|
 |---------------------------------------------------------|
 |---------------------------------------------------------|
 |--7-------7-----7-------7-----7-------7-----7-------7----|
 |--5-------5-----5-------5-----5-------5-----5-------5----|
 |---------------------------------------------------------|

S S S S S S S S S E. +S S S S
 
 |---------------------------------------------------|
 |-20-19--17----19-17-15-14---17p15--(15)-13-12-15---|
 |-----------19--------------------------------------|
 |---------------------------------------------------|
 |---------------------------------------------------|
 |---------------------------------------------------|

|
|
| S E. E S T T Q Q
 
 |---------------------------------------------------|
 |---------------------------------------------------|
 |---------------------------------------------------|
 |--2--2---------2--------4-4--4-------4-------------|
 |--0--0---------0--------2-2--2-------2-------------|
 |---------------------------------------------------|

end Rhy Fig 2-|
w/Rhy Fig 2
|--3--|
[E] [+E] [E] [+E] [E] [E] [E] [E] [E]  
 
 |------------------------------------------------|
 |-15b17==(17)r---15b17==(17)r---15s12----12-15---|
 |-------------------------------------14---------|
 |------------------------------------------------|
 |------------------------------------------------|
 |------------------------------------------------|

~~~~~~~~~~~~
E Q +E E +E S S S S
 
 |----------------------------------------------------|
 |-12-15b17======(17)r---15b17==(17)r---15p12------12-|
 |--------------------------------------------13------|
 |----------------------------------------------------|
 |----------------------------------------------------|
 |----------------------------------------------------|

E S S S S S S S S E E E E Q. +Q Q
 
 |-15-15p==12----------------------------------|--------------------------(7)/---|
 |------------15p12------12-15p12--------------|----15-----------(15)\-----------|
 |------------------14------------14---12------|-12-14b16========(16)r\----------|
 |----------------------------------------14---|---------------------------------|
 |---------------------------------------------|---------------------------------|
 |---------------------------------------------|---------------------------------|

S S S S S S S S S S S S S S S S
 
 |-19p15------15-19p15-17p==15----15-19p==15-17p15------15-|
 |-------17--------------------17------------------17------|
 |---------------------------------------------------------|
 |---------------------------------------------------------|
 |---------------------------------------------------------|
 |---------------------------------------------------------|

S S E S S S S E S S S E.
 
 |-19p15------19p15-17p==15----19p==15-17p15----|
 |-------17-----------------15------------------|
 |----------------------------------------------|
 |----------------------------------------------|
 |----------------------------------------------|
 |----------------------------------------------|

~~~~~ ~~~~~~~~~~~~~
|--3--|
Q +Q E +E E E E E Q +E Q +Q
 
 |-20b22====(22)r---20b22==(22)r---19p17----|-17----22b24====(24)r-----22b24===(24)r----|
 |-20b22====(22)r------------------------19-|-------------------------------------------|
 |------------------------------------------|-------------------------------------------|
 |------------------------------------------|-------------------------------------------|
 |------------------------------------------|-------------------------------------------|
 |------------------------------------------|-------------------------------------------|

Faster Q=184
Gtr II
 
 PM--------------------------------------------------------------------|

[E] [E] [E] [E] [E] [E] [E] [E] [E] [E] [E] [E] [E] [E] [E] [E] [E] [E] [E] [E] [E] [E] [E] [E] [E] [E] [E] [E] [E] [E] [E] [E]  
 
 ||------------------|-------------------|-----------------|------------------|
 ||o-----------------|-------------------|-----------------|------------------|
 ||----4-0-----------|-----4-0-----------|---4-0-----2-0---|-----4---5---4-5--|
 ||--2-----4-2-5-4-2-|--2------4-2-5-4-2-|-2-----4-3-----3-|-7-5---7---7------|
 ||o-----------------|-------------------|-----------------|------------------|
 ||------------------|-------------------|-----------------|------------------|

|
| Gtr I
| W +W W H H
 
 ||------------------|-------------------|-----------------|------------------|
 ||o-----------------|-------------------|-----------------|------------------|
 ||------------------|-------------------|-----------------|------------------|
 ||------------------|-------------------|-----------------|---------2--------|
 ||o-2---------------|-(2)---------------|-3---------------|-5-------0--------|
 ||--0---------------|-(0)---------------|-1---------------|-3----------------|
 PM-----------------------------------

[E] [E] [E] [E] [E] [E] [E] [E] [E] [E] [E] [E] [E] [E] [E] [E]  
 
 |-----------------|-------------------|
 |-----------------|-------------------|
 |---4-0-----------|-----4-0-----------|
 |-2-----4-2-5-4-2-|--2------4-2-5-4-2-|
 |-----------------|-------------------|
 |-----------------|-------------------|

|
| W +W
 
 |-----------------|-------------------|
 |-----------------|-------------------|
 |-----------------|-------------------|
 |-----------------|-------------------|
 |-2---------------|-(2)---------------|
 |-0---------------|-(0)---------------|
 -------|

E E E E E E E E S E. E S T T Q Q
 
 |-----------------|-----------------------||
 |-----------------|----------------------o||
 |---4-4-3-2-4-3-2-|-----------------------||
 |-2---------------|-2-2--2---4-4-4--4-----||
 |-----------------|-0-0--0---2-2-2--2----o||
 |-----------------|-----------------------||

|
| W S E. E S T T Q Q
 
 |-----------------|-----------------------||
 |-----------------|----------------------o||
 |-----------------|-----------------------||
 |-7---------------|-2-2--2---4-4-4--4-----||
 |-5---------------|-0-0--0---2-2-2--2----o||
 |-----------------|-----------------------||

Gtrs I, II
E S S E S S E S S E S S E S S E S S E S S E S S
 
 |-------------------------|-------------------------|
 |-------------------------|-------------------------|
 |-------------------------|-------------------------|
 |-------------------------|-------------------------|
 |-------------------------|-------------------------|
 |-5-5-5-5-5-5-5-5-5-5-5-5-|-5-5-5-5-5-5-5-5-5-5-5-5-|

E S S E S S E S S E S S E S S E S S E S S E S S
 
 |-------------------------|----------------------------||
 |-------------------------|----------------------------||
 |-------------------------|----------------------------||
 |-------------------------|----------------------------||
 |-------------------------|----------------------------||
 |-3-3-3-3-3-3-3-3-3-3-3-3-|-2-2-2-2-2-2-1-1-1-1-1-1----||

[B] [B] [B] [B] [B] [B] [B] [B]  
 
 |-----------|-----------|-----------|-----------||
 |-----------|-----------|-----------|-----------||
 |------8----|-7----6----|------8----|-7----6----||
 |-9----8----|-7----6----|-9----8----|-7----6----||
 |-7----6----|-5----4----|-7----6----|-5----4----||
 |-0---------|-----------|-0---------|-----------||
 PM----| PM----| PM----| PM----|

S S S S Q S S S S Q S S S S Q S S S S Q
 
 |-----------------------|-----------------------|
 |-----------------------|-----------------------|
 |-----------------------|-----------------------|
 |---------2----------2--|---------2----------2--|
 |---------2----------2--|---------2----------2--|
 |-0-0-0-0-0--0-0-0-0-0--|-0-0-0-0-0--0-0-0-0-0--|

[B] [B] [B] [B] [B] [B] [B] [B]  
 
 |-----------|-----------|-----------|-----------||
 |-----------|-----------|-----------|-----------||
 |------8----|-7----6----|------8----|-7----6----||
 |-9----8----|-7----6----|-9----8----|-7----6----||
 |-7----6----|-5----4----|-7----6----|-5----4----||
 |-0---------|-----------|-0---------|-----------||
 PM----| PM----| PM----| PM----| PM------| PM------|

S S S S Q S S S S Q S S S S Q S S S S Q E S S E S S E S S E S S
 
 |-----------------------|-----------------------||---------------------------|
 |-----------------------|-----------------------||o--------------------------|
 |-----------------------|-----------------------||---------------------------|
 |---------5----------5--|---------5----------5--||---------------------------|
 |---------5----------5--|---------5----------5--||o-7-----------6------------|
 |-3-3-3-3-3--3-3-3-3-3--|-3-3-3-3-3--3-3-3-3-3--||----0-0-0-0-0---0-0-0-0-0--|
 PM------| PM------| PM------| PM------|

E S S E S S E S S E S S E S S E S S E S S E S S
 
 |--------------------------||-------------------------|
 |-------------------------o||-------------------------|
 |--------------------------||-------------------------|
 |--------------------------||-5-----------5-----------|
 |-5-----------4-----------o||-5-----------5-----------|
 |---0-0-0-0-0---0-0-0-0-0--||-3-3-3-3-3-3-3-3-3-3-3-3-|
 PM------| PM------|

E S S E S S E S S E S S H H
 
 |-------------------------|-----------|
 |-------------------------|-----------|
 |-------------------------|-----------|
 |-5-----------5-----------|-5----5----|
 |-5-----------5-----------|-5----5----|
 |-3-3-3-3-3-3-3-3-3-3-3-3-|-3----3----|

Q=136
\1 |
H H W +W +W +W
 
 |-----------|----------|------------|------------|--------||
 |-----------|----------|------------|------------|--------||
 |-----------|----------|------------|------------|--------||
 |-5----5----|-5--------|-(5)--------|-(5)--------|-(5)----||
 |-5----5----|-5--------|-(5)--------|-(5)--------|-(5)----||
 |-3----3----|-3--------|-(3)--------|-(3)--------|-(3)----||

PM|
|-3-|
E E E E E E E E E Q E E E E Q
 
 |-------------------|---------------|
 |-------------------|---------------|
 |-------------------|---------------|
 |-------------------|-2--4---4---4--|
 |---------2---------|-2--4---4-3-4--|
 |-3-2-5-3---5-3-2-1-|-0--2---2---2--|

PM PM----| PM
E E E E E E Q Q E E E E Q E E E E E E E E
 
 |----------------|---------------|-------------------|
 |----------------|---------------|-------------------|
 |----------------|---------------|-------------------|
 |-----4---4-5-4--|-2----------4--|-----4---4-5-4-4---|
 |-----4---4-5-4--|-2--------3-4--|-----4---4-5-4-4---|
 |-2---2---2-3-2--|-0--0-0-2---2--|-2---2---2-3-2-2---|

[5/4] [4/4] [3/4]  
 
 PM| PM PM| PM| PM----------------|

|-3-|
Q E E E E Q E E E E E E Q E E Q E E Q E E E E E E E E E
 
 |---------------|--------------------|---------------|----------------|
 |---------------|--------------------|---------------|----------------|
 |---------------|--------------------|--------2------|----------------|
 |-2--4---4---4--|-----4---4-5-4------|-5------2------|----------------|
 |-2--4---4-3-4--|-----4---4-5-4--2-2-|-5--2-2-0--2-2-|-----2----------|
 |-0--2---2---2--|-2---2---2-3-2--0-0-|-3--0-0----0-0-|-5-3---5-3-2-1--|

[4/4] |-3-|
Q Q H Q E E E Q Q
 
 |------------|----------------*|
 |------------|----------------*|
 |------------|----------------*|
 |-2----------|-3--2-2-2-2-----*|
 |-2----------|-3--2-2-2-2-----*|
 |-0----------|-1--0-0-0-0-----*|


Important: The song above is NOT stored on the Chordie server. The original song is hosted at www.guitaretab.com. Chordie works as a search engine and provides on-the-fly formatting. Chordie does not index songs against artists'/composers' will. To remove this song please click here.

Text color:
Chord color:
Chord grids: 
Font size:    
Page size: 

B E
Rate #1 of 3 versions

Jango Player

Login - add to songbook

SHARE PAGE  




You need to log in to post comments