Guitar Tabs, Chords and Lyrics
Server problems seems to be fixed. Chordie has been experiencing problems with songs disappearing. These issues now seems to be fixed, but still verifying the fix. If you find anything strange, please email admin@chordie.com.


Motorbreath  Metallica

Band- Metallica
Song- Motorbreath
Gtr I, II (E A D G B E) - 'James hetfield - Rhythm w/dist'
Gtr III (E A D G B E) - 'Kirk Hammett - Lead w/dist'
Intro
Q=180
[4/4] Gtrs I, II
 
 PM-----------------------

Wx3 H Q Q E S S E S S E S S S S S S
 
 |------------|------------|---------------------------|
 |------------|------------|---------------------------|
 |------------|------------|---------------------------|
 |------------|------------|---------------------------|
 |------------|------7--8--|-9-------------------------|
 |------------|------5--6--|-7-7-7-7-7-7-7-7-7-7-7-7-7-|
 -------------------------|

E S S E S S E S S S S S S
 
 |---------------------------|
 |---------------------------|
 |---------------------------|
 |---------------------------|
 |---------------------------|
 |-3-3-3-3-3-3-3-3-3-3-3-3-3-|
 PM-------------------------

E S S E S S E S S S S S S
 
 |---------------------------|
 |---------------------------|
 |---------------------------|
 |---------------------------|
 |---------------------------|
 |-5-5-5-5-5-5-5-5-5-5-5-5-5-|
 -----------------------------------------------------|

E S S E S S E S S S S S S E S S E S S E S S S S S S
 
 |---------------------------|---------------------------|
 |---------------------------|---------------------------|
 |---------------------------|---------------------------|
 |---------------------------|---------------------------|
 |---------------------------|---------------------------|
 |-2-2-2-2-2-2-2-2-2-3-3-5-5-|-7-7-7-7-7-7-7-7-7-7-7-7-7-|
 PM---------------------------

E S S E S S S S S S S S S S
 
 |-----------------------------|
 |-----------------------------|
 |-----------------------------|
 |-----------------------------|
 |-----------------------------|
 |-3-3-3-3-3-3-3-3-3-3-3-3-3-3-|
 -----------------------------------------------------|

E S S E S S S S S S S S E E S S E S S S S S S S S E
 
 |---------------------------|----------------------------||
 |---------------------------|----------------------------||
 |---------------------------|----------------------------||
 |---------------------------|----------------------------||
 |---------------------------|----------------------------||
 |-5-5-5-5-5-5-5-5-5-5-5-5-5-|-2-2-2-2-2-2-2-2-2-2-2-2-2--||

$
 
 PM-----------------------

E Q E E E +S S E E E +S S E E E +S S E
 
 ||---------------------|-------------------------|
 ||o--------------------|-------------------------|
 ||---------------------|-------------------------|
 ||---------------------|-------------------------|
 ||o-9-9--7-9-9-(9)-7-7-|-5-5-(5)-4-4-5-5-(5)-4-4-|
 ||--7-7--5-7-7-(7)-5-5-|-3-3-(3)-2-2-3-3-(3)-2-2-|

|-Rhy Fig 1
 
 ---------------------------------------|

E E +S S E E E +S S E E Q E E Q E
 
 |-------------------------|----------------||
 |-------------------------|---------------o||
 |-------------------------|----------------||
 |-------------------------|----------------||
 |-7-7-(7)-5-5-7-7-(7)-5-5-|-4-4----4-4--7-o||
 |-5-5-(5)-3-3-5-5-(5)-3-3-|-2-2--0-2-2--5--||

end Rhy Fig 1-|
Verses
||--
||o-
||-- Rhy Fig 1 x2
||--
||o-
||--
E. S +E E E. S +E E e. S +E E e. s +E e
 
 |-----------------------|-----------------------||
 |-----------------------|-----------------------||
 |-----------------------|-----------------------||
 |-4--4-(4)---4--4-(4)---|-4--4-(4)---4--4-(4)---||
 |-2--2-(2)-0-2--2-(2)-0-|-2--2-(2)-0-2--2-(2)-0-||
 |-----------------------|-----------------------||

Chorus
E Q E E Q E E Q E E Q E
 
 |---------------|----------------|
 |---------------|----------------|
 |---------------|----------------|
 |-4-4-----------|-7-7--4---------|
 |-2-2----5-5----|-5-5--2-4-4-----|
 |--------3-3----|--------2-2-----|

E Q E E Q E S S Q E q Q E Q E E Q E
 
 |---------------|----------------|---------------|
 |---------------|----------------|---------------|
 |---------------|----------------|---------------|
 |---------------|----------------|-4-4-----------|
 |-5-5----2-2----|-4-4-4--4-4-----|-2-2----5-5----|
 |-3-3----0-0----|-2-2-2--2-2-----|--------3-3----|

E Q E E Q E E Q E E Q E S S S S S S S S q Q To Coda
 
 |---------------|---------------|-----------------------||
 |---------------|---------------|-----------------------||
 |---------------|---------------|-----------------------||
 |-7-7--4--------|---------------|-----------------------||
 |-5-5--2-4-4----|-5-5----2-2----|-4-4-4-4-4-4-4-4-4-----||
 |--------2-2----|-3-3----0-0----|-2-2-2-2-2-2-2-2-2-----||

PM PM PM PM PM PM PM PM
S S S S S S S S S S S S E E S S S S S S S S S S S S E E
 
 |-----------------------------|-----------------------------|
 |-----------------------------|-----------------------------|
 |-----------------------------|-----------------------------|
 |-4p2---4p2---4p2---4p2---4-2-|-4p2---4p2---4p2---4p2---4-2-|
 |-----2-----2-----2-----2-----|-----2-----2-----2-----2-----|
 |-----------------------------|-----------------------------|

|-Riff A
PM PM PM PM PM PM PM PM
S S S S S S S S S S S S E E S S S S S S S S S S S S E E
 
 |-----------------------------|-----------------------------|
 |-----------------------------|-----------------------------|
 |-----------------------------|-----------------------------|
 |-4p2---4p2---4p2---4p2---4-2-|-4p2---4p2---4p2---4p2---4-2-|
 |-----0-----0-----0-----0-----|-----2-----2-----2-----2-----|
 |-----------------------------|-----------------------------|

end Riff A-|
Riff A 1st 3 bars
PM PM PM PM[5/4]
S S S S S S S S S S S S E E H +E. S +E. S +Q
 
 |------------------------------||-------------------------||
 |-----------------------------o||-------------------------||
 |------------------------------||-------------------------||
 |-4p2---4p2---4p2---4p2---4-2--||-4----(4)-4-(4)-5-(5)----||
 |-----0-----0-----2-----2-----o||-2----(2)-2-(2)-3-(3)----||
 |------------------------------||-------------------------||

Guitar Solo
[4/4] Gtr III
Q. +E +Q. S S S S S S S S S S S S S S S S S S
 
 |------------------------------------------|---------------------------------------------|
 |-12----------(12)---(12)------------9--9--|-12p=9-----9-12p9----9-12p=9-----9-12p9----9-|
 |-11----------(11)---(11)------------------|--------11--------11----------11--------11---|
 |------------------------------------------|---------------------------------------------|
 |------------------------------------------|---------------------------------------------|
 |------------------------------------------|---------------------------------------------|

|
| Gtrs I, II
 
 | PM---------| PM PM----------|

| E S S S S S S S S S S +E S S S S S S S S S S S S E Q
 
 |------------------------------------------|---------------------------------------------|
 |------------------------------------------|---------------------------------------------|
 |------------------------------------------|---------------------------------------------|
 |--6-------------------6p=4----6-(6)-6p=4--|--4h=6------------------6p=4-----------------|
 |--4--4-4-4-4---4--4---4-(4)-4-4-(4)-4-(4)-|--4-(4)--4-4--4-4--4-4--4-(4)--6----6--------|
 |------------------------------------------|-------------------------------4----4--------|

|-Rhy Fig 2
S E T T S S S S S S S S S S S S
 
 |-------9--------------9-------------9-------------9----------|
 |-12b14-----12p9-12b14---12p9-12b14-----12p9-12b14---12p=9----|
 |-------------------------------------------------------------|
 |-------------------------------------------------------------|
 |-------------------------------------------------------------|
 |-------------------------------------------------------------|

|
 
 | PM----------------| PM

| E S S S S S S S S S S +E S S
 
 |-------------------------------------------------------------|
 |-------------------------------------------------------------|
 |-------------------------------------------------------------|
 |--6---------------------------6p====4-----6-(6)------6p=4----|
 |--4------4--4----4----4--4-4--4----(4)--4-4-(4)------4-(4)---|
 |-------------------------------------------------------------|

S S S S S S S S S S S S S E.
 
 |----------------------------------------------|
 |--------9--12p9-------------------------------|
 |-11b13----------11-9----9-11p9----------------|
 |---------------------11--------11---9---------|
 |--------------------------------------11-9\---|
 |----------------------------------------------|

|
 
 | PM----------|
 | |-------3--------|

| S S S S S S S S q q q
 
 |----------------------------------------------|
 |----------------------------------------------|
 |----------------------------------------------|
 |--4h====6-------------------------------------|
 |--4----(4)--4-4--4-4--4-4--6------6---------6-|
 |---------------------------4------4---------4-|

end Rhy Fig 2-|
w/Rhy Fig 2 1st 2 bars only
E S S S S S S S S S S S S E
 
 |------------------------------------------|
 |------------------------------------------|
 |---------------------------------9-11-----|
 |-------------9-9-11p=9-----9-11-----------|
 |----7-9-9s11------------11----------------|
 |-/9---------------------------------------|

S S S S S S S S S S S S +E S S
 
 |--------------------------------------------------|
 |-----------------------------------------------16-|
 |-11p=9-----9-11p9----9-11p=9-----9-(9)\-/18b20----|
 |--------11--------11----------11------------------|
 |--------------------------------------------------|
 |--------------------------------------------------|

D.S. al Coda
E S S +S S S S S S S S S S S S S S S S Q H
 
 |-------16--------------16-------16-19p16----------------------|--------------------------||
 |-19b21----19b21==(19)r----19b21-----------19-16-16--16-19p16--|----16-19p16-19b21--------||
 |--------------------------------------------------------------|-18-----------------------||
 |--------------------------------------------------------------|--------------------------||
 |--------------------------------------------------------------|--------------------------||
 |--------------------------------------------------------------|--------------------------||

|
 
 | PM----------------------| PM PM|

| E S S S S S S S S S S +E S S E S S q Q Q
 
 |--------------------------------------------------------------|--------------------------||
 |--------------------------------------------------------------|--------------------------||
 |--------------------------------------------------------------|--------------------------||
 |--6---------------------------------6p=4------6-(6)-----6p=4--|--6-----------6-----6--5--||
 |--4-----4--4-------4----4--4-----4--4-(4)--4--4-(4)-----4-(4)-|--4-----4--4--4-----4--3--||
 |--------------------------------------------------------------|--------------------------||

Guitar Solo
&
[2/4] Gtr III[4/4]
H S S S S S S S S S S S S S S S S
 
 |-------||-12p9------12p9------12p=9-------12p=9--------|
 |-------||------12p9------12p9--------12p9-------12p=9--|
 |-------||----------------------------------------------|
 |-------||----------------------------------------------|
 |-------||----------------------------------------------|
 |-------||----------------------------------------------|

|
| Gtrs I, II
|
| Q Q
 
 |-------||
 |-------||
 |-------||-w/Rhy Fig 2 x4

|-4--5--||
|-2--3--||
 
 |-------||

|-3--|
S S S S S S S S S S S S S S S S S
 
 |-12p=9-------12p9------12p=9-------12p9---------|
 |--------12p9------12p9--------12p9------12p9h12-|
 |------------------------------------------------|
 |------------------------------------------------|
 |------------------------------------------------|
 |------------------------------------------------|
 |--3--| |--3--| |---3---| |--3--| |-3--| |---3---|

S S S S S S S S S S S S S S S S S S S S S S
 
 |-12p9-12p9-11-8---8-10-7---7-9-6-----6-8-5---5--7--4-4-4-4-----4-|
 |-----------------------------------------------------------------|
 |-----------------------------------------------------------------|
 |-----------------------------------------------------------------|
 |-----------------------------------------------------------------|
 |-----------------------------------------------------------------|

E S S S S S S S S S S +E S S
 
 |-4-------4-7p4----------------------------|
 |-------7-------7-4-7-4--------------------|
 |-----------------------6---4-(4)b5------4-|
 |-------------------------------------/6---|
 |------------------------------------------|
 |------------------------------------------|

|--3--|
S E S E S S +S S E E S S S S S S S S S S S S S S S E E
 
 |--------------------------------------|---------------------------------------|
 |---4----------------------------------|---------------------------------------|
 |---4-----4-----4-(4)----6----4--------|------4--7p4---------------------------|
 |-6-------4-----4-(4)----6----4-----4--|-6b8---------4h6p==4---4-6--4----------|
 |-------6-----6-------6----------6-----|---------------------6---------6-4-----|
 |--------------------------------------|-----------------------------------6-4-|

E S S E S S S S S S S S E
 
 |---------------------------------------|
 |---------------------------------------|
 |-------------------------------4-6-----|
 |-------------4-4-6p=4----4--6----------|
 |----2-4-/6-------------6---------------|
 |-/4------------------------------------|

S S S S S S S S S S E E E
 
 |---------------------------------------|
 |---------------------------------------|
 |-6b8-----4-6p4---4-6p4---4\---/9---11--|
 |------6--------6-------6---------------|
 |---------------------------------------|
 |---------------------------------------|

~~~~~
S S S S +E S S +S S E Q
 
 |-------9-9------------------------9----------------------|
 |-----------12b14==(12)r---9-9-(9)----12b14---12b14-------|
 |-11b13---------------------------------------------------|
 |---------------------------------------------------------|
 |---------------------------------------------------------|
 |---------------------------------------------------------|

~~~~~
S S S S +E. T T S S E E E
 
 |--------9-----------------------------9--------------------|
 |-----9----12b14==(12)r-----9-9-----------12b14-12b13-12b14-|
 |-11----------------------------11b13-----------------------|
 |-----------------------------------------------------------|
 |-----------------------------------------------------------|
 |-----------------------------------------------------------|

|--3---|
S S S S S S S S S S S S S S S S S
 
 |---------------9h12p==9--------------------------|
 |-12p9-9-9-12p9----------12p=9-----9-12p=9--------|
 |-------------------------------12---------11--9--|
 |-------------------------------------------------|
 |-------------------------------------------------|
 |-------------------------------------------------|

S S S S S S S S S S S S +E S S
 
 |-----------------------------------------------16-|
 |--------------------------------------------19----|
 |-9--9--11p9---------------------------------------|
 |------------11-9-9-9-11-9-------------------------|
 |--------------------------11---9b10==(9)r---------|
 |--------------------------------------------------|

E S S +S S S S S S S S S S S S
 
 |-16----16-16-----(16)--16-16----16-19p16-----16-19p=16-21p16--|
 |-19b21----19b21==(19)r----19b21-----------19------------------|
 |--------------------------------------------------------------|
 |--------------------------------------------------------------|
 |--------------------------------------------------------------|
 |--------------------------------------------------------------|

S S S S S S S S S S S S S S S S
 
 |-19p16-----16-19p16-21p16-19p16-----16-19p16-------|
 |--------19-----------------------19----------19-16-|
 |---------------------------------------------------|
 |---------------------------------------------------|
 |---------------------------------------------------|
 |---------------------------------------------------|

S S S S T T S S S S S S S S S S S
 
 |-----------------16h==19p==16------------------------19p=16--------|
 |-------16-19p16-(16)-(16)-(16)-19-16-------16--19p16--------19-16--|
 |-18b20-------------------------------18b20-------------------------|
 |-------------------------------------------------------------------|
 |-------------------------------------------------------------------|
 |-------------------------------------------------------------------|

S S S S S S S S E. S +Q
 
 |-----------------19p16----16-19b21---19b22==(19)r---|
 |-------16--19p16-------19---------------------------|
 |-18b20----------------------------------------------|
 |----------------------------------------------------|
 |----------------------------------------------------|
 |----------------------------------------------------|

w/Rhy Fig 2 (1st bar)
[B] [B]  
 
 |-19b21------------------------------------||
 |------------------------------------------||
 |------------------------------------------||
 |------------------------------------------||
 |------------------------------------------||
 |------------------------------------------||

Rhy Fig 2 (last 3 bars)
 
 PM--------| PM PM--------|

E S S S S S S S S S S +E S S S S S S S S S S S S E Q
 
 |-----------------------------------|------------------------------|
 |-----------------------------------|------------------------------|
 |-----------------------------------|------------------------------|
 |-6-------------6p=4----6-(6)-6p=4--|-4h=6--------------6p=4-------|
 |-4-4-4-4-4-4-4-4-(4)-4-4-(4)-4-(4)-|-4-(4)-4-4-4-4-4-4-4-(4)-6-6--|
 |-----------------------------------|-------------------------4-4--|
 PM--------| PM

E S S S S S S S S S S +E S S
 
 |-------------------------------------|
 |-------------------------------------|
 |-------------------------------------|
 |-6-------------6p=4----6-(6)-6p=4----|
 |-4-4-4-4-4-4-4-4-(4)-4-4-(4)-4-(4)---|
 |-------------------------------------|
 PM--------|
 |-3-| |-3-| |-3-|

S S S S S S S S q q q q q q Q q q q Q H
 
 |-------------------------|-------------|------------*|
 |-------------------------|-------------|------------*|
 |-------------------------|-------------|------------*|
 |-4h=6--------------------|-4-4-4-------|-6----------*|
 |-4-(4)-4-4-4-4-4-4-6-6-6-|-2-2-2-4-4-4-|-4----------*|
 |-------------------4-4-4-|-------2-2-2-|------------*|


Important: The song above is NOT stored on the Chordie server. The original song is hosted at www.guitaretab.com. Chordie works as a search engine and provides on-the-fly formatting. Chordie does not index songs against artists'/composers' will. To remove this song please click here.

Text color:
Chord color:
Chord grids: 
Font size:    
Page size: 

B
Rate #1 of 2 versions

Jango Player

Login - add to songbook

SHARE PAGE  




You need to log in to post comments