Guitar Tabs, Chords and Lyrics
Server problems seems to be fixed. Chordie has been experiencing problems with songs disappearing. These issues now seems to be fixed, but still verifying the fix. If you find anything strange, please email admin@chordie.com.


Ronnie  Metallica

RONNIE
As recorded by Metallica
(From the 1996 Album LOAD)
Words and Music by James Hetfield and Lars Ulrich
x 3 [C5]5 5 x x x 2 [B5]4 4 x x 1 3 [F5]3 x x x 3 5 [G5]5 x x x
x 5 [D5]7 7 x x
Gtr I (Eb Ab Db Gb Bb Eb) - 'Gtr. I'
Gtr II (Eb Ab Db Gb Bb Eb) - 'Gtr. II'
Gtr III (Eb Ab Db Gb Bb Eb) - 'Gtr. III'
Intro
Moderately Slow Rock Q=92
N.(A)
[4/4] Gtr I
PM~ PM~
E a e E E a e E E E
 
 ||--------------------------|
 ||o-------------------------|
 ||--------------------5b5.5-|
 ||----5h8-7---5h8-7---------|
 ||o-0-------0-------0-------|
 ||--------------------------|

PM~ PM~ PM~ PM~
E a e E E a e E E S +S +E a e E E a e E E E
 
 |----------------------------|-----------------------|
 |----------------------------|-----------------------|
 |-------------------6b7==(6)r|=(6)-----------------5-|
 |---5h8-7---5h8-7---7----(7)-|-(7)-5h8-7---5h8-7-----|
 |-0-------0-------0----------|-----------0-------0---|
 |----------------------------|-----------------------|

~ ~
|--3--|
E E +e e S +S S E E E
 
 |-----------------------------||-|
 |---8----(8)-8-8-(8)---------o||-|
 |---7b9==(7)-7-7r(7)p5---5-7--||-|
 |----------------------7------||-|
 |-0--------------------------o||-|
 |-----------------------------||-|

N.(A)
Gtr II
PM~ PM~ PM~ PM~
E e E E e E E E E e E E e E E S +S
 
 ||----------------------|-------------------------|
 ||o---------------------|-------------------------|
 ||----------------5b5.5-|---------------6b7==(6)r=|
 ||----5-7---5-7---------|---5-7---5-7---7----(7)--|
 ||o-0-----0-----0-------|-0-----0-----0-----------|
 ||----------------------|-------------------------|

N.(A5)
Gtrs I, II
PM~ PM~ ~ ~ ~ ~ ~
|--3--|
+E e E E e E E E E E +e e S +S S E E E E E E E E E E S S
 
 |-----------------------|-----------------------------||-------------------|
 |-----------------------|---8----(8)-8-8-(8)---------o||-------------------|
 |-(6)-------------5b5.5-|---7b9==(7)-7-7r(7)p5---5-7--||---2---2---2-------|
 |-(7)-5-7---5-7---------|----------------------7------||---------------0-2-|
 |---------0-----0-------|-0--------------------------o||-0---0---0---3-----|
 |-----------------------|-----------------------------||-------------------|

~ ~ ~ ~ ~ ~[C5] [B5] [F5G5] [D5]
S S E E E E E E S S S S E E E E E E S S Q E. S e E S S E
 
 |---------------------|---------------------|--------------------||
 |---------------------|---------------------|--------------------||
 |-----2---2---2-------|-----2---2---2-------|-5--4------------7--||
 |-----------------0-2-|-----------------0-2-|-5--4----3-5-x-x-7--||
 |-3p0---0---0---3-----|-3p0---0---0---3-----|-3--2----3-5-x-x-5--||
 |---------------------|---------------------|-------0-1-3-x-x----||

1st Verse
[E5]Gtr II[D5]
a a E S S E E S S E S S a E E S S E E S S E E a S S
 
 |----------------------------------|-----------------------------------|
 |----------------------------------|-----------------------------------|
 |--------9-7-9-----7s9-7-9s=7-7s12-|--------9-7-9-------7s9------------|
 |----------------------------------|------------------------7-7--------|
 |-7h8p7--7-5-7-----5s7-9-7s=5-5s10-|--------7-5-7-------5s7-5-5-5S7h10-|
 |----------------0-----------------|-----0----------0------------------|

|
| Gtr I
| a a E. S S S E S S E Q a a E. S S S S S e E E a S S
 
 |----------------------------------|-----------------------------------|
 |----------------------------------|-----------------------------------|
 |----------------------------------|-----------------------------------|
 |----------9-x-x-7-x-x-7-9\--------|----------9-x-x-7h9-9---7-7--------|
 |-7h8p7----7-x-x-7-x-x-7-7\--------|-7h8p7----7-x-x-7---7---5-5-5S7h10-|
 |----------------------------------|-----------------------------------|

[E5]~~[D5] [C5]
E S S E E S S E S S a E E S S S S S S S S E S S E
 
 |------------------------------|----------------------------------|
 |------------------------------|----------------------------------|
 |----9-7-9-----9s7-9-9s=7-7s12-|--------9-7-9-9-9s7-9s10s9-9s12-7-|
 |------------------------------|----------------------------------|
 |-7--7-5-7-----7s5-7-7s=5-5s10-|--------7-5-7-7-7s5-7s12s7-7s10-5-|
 |------------0-----------------|-----0----------------------------|

|
| ~~
| E. S S S E S S E Q a a E. S S S S S S S E E E
 
 |------------------------------|----------------------------------|
 |------------------------------|----------------------------------|
 |------------------------------|----------------------------------|
 |------9-x-x-7-x-x-7-9\--------|----------9-x-x-7h9-x--x-7-7----5-|
 |-7----7-x-x-7-x-x-7-7\--------|-7h8p7----7-x-x-7---x--x-5-5----3-|
 |------------------------------|----------------------------------|

[(A)]E E E E E E E S S E E E E E E E E
 
 |-------------------|-----------------||
 |-------------------|-----------------||
 |---2---2---2-------|---2---2---5---7-||
 |---------------0-2-|-----------------||
 |-0---0---0---3-----|-0---0---0---0---||
 |-------------------|-----------------||

|
| E E E E E E E S S E E E E E E E E
 
 |-------------------|-----------------||
 |-------------------|-----------------||
 |---2---2---2-------|---2---2---0-----||
 |---------------0-2-|---------------4-||
 |-0---0---0---3-----|-0---0---0---0---||
 |-------------------|-----------------||

2nd Verse
[E5]Gtr II[D5]
a a E S S E E S S E S S a E E S S E E S S E E a S S
 
 |----------------------------------|-----------------------------------|
 |----------------------------------|-----------------------------------|
 |--------9-7-9-----7s9-7-9s=7-7s12-|--------9-7-9-------7s9------------|
 |----------------------------------|------------------------7-7--------|
 |-7h8p7--7-5-7-----5s7-9-7s=5-5s10-|--------7-5-7-------5s7-5-5-5S7h10-|
 |----------------0-----------------|-----0----------0------------------|

|
| Gtr I
| a a E. S S S E S S E Q a a E. S S S S S e E E a S S
 
 |----------------------------------|-----------------------------------|
 |----------------------------------|-----------------------------------|
 |----------------------------------|-----------------------------------|
 |----------9-x-x-7-x-x-7-9\--------|----------9-x-x-7h9-9---7-7--------|
 |-7h8p7----7-x-x-7-x-x-7-7\--------|-7h8p7----7-x-x-7---7---5-5-5S7h10-|
 |----------------------------------|-----------------------------------|

[E5]~~[D5] [G5]
E S S E E S S E S S a E E S S S S S S S S E S S E
 
 |------------------------------|---------------------------------------|
 |------------------------------|---------------------------------------|
 |----9-7-9-----9s7-9-9s=7-7s12-|--------9-7-9-9-9s=7--9s10s9-9s12-7----|
 |------------------------------|---------------------------------------|
 |-7--7-5-7-----7s5-7-7s=5-5s10-|--------7-5-7-7-7s=5--7s12s7-7s10-5----|
 |------------0-----------------|-----0---------------------------------|

|
| ~~
| E. S S S E S S E Q a a E. S S S S S e E E S S
 
 |------------------------------|---------------------------------------|
 |------------------------------|---------------------------------------|
 |------------------------------|---------------------------------------|
 |------9-x-x-7-x-x-7-9\--------|----------9-x-x------------7-7----7s12-|
 |-7----7-x-x-7-x-x-7-7\--------|-7h8p7----7-x-x-7s10-10----5-5----5s10-|
 |------------------------------|---------------------------------------|

[D5]Gtrs I, I[C5/D]I[D5] [C5] [B5]
E. S S S E S S E E E E S S S S S S S S S S E E
 
 |----------------------|---------------------------||
 |----------------------|---------------------------||
 |-7--7-x-x-5-x-x-5-7-7-|-7-7-7-x-x-7-7-7s5-5-5-5-4-||
 |-7--7-x-x-5-x-x-5-7-7-|-7-7-7-x-x-7-7-7s5-5-5-5-4-||
 |-5--5-x-x-5-x-x-5-5-5-|-5-5-5-x-x-5-5-5s3-3-3-3-2-||
 |----------------------|---------------------------||

Chorus
$
N.(A)
[4/4] Gtr I
PM~ PM~
E a e E E a e E E E
 
 |-------------------------|
 |-------------------------|
 |-------------------5b5.5-|
 |---5h8-7---5h8-7---------|
 |-0-------0-------0-------|
 |-------------------------|

PM~ PM~ PM~ PM~
E a e E E a e E E S +S +E a e E E a e E E E
 
 |----------------------------|------------------------|
 |----------------------------|------------------------|
 |-------------------6b7==(6)r|=(6)-----------------5--|
 |---5h8-7---5h8-7---7----(7)-|-(7)-5h8-7---5h8-7------|
 |-0-------0-------0----------|-----------0-------0----|
 |----------------------------|------------------------|

[C5] [D5] ~~~ [C5]~
 
 |---3---|

E E +e e S +S S E E E
 
 |------------------------------------|
 |---8----(8)-8-8-(8)-----------------|
 |---7b9==(7)-7-7r(7)p==5---------5-7-|
 |------------------------7-----------|
 |-0----------------------------------|
 |------------------------------------|

|
| Gtr II
| PM
| E e Q S S S +S E E
 
 |------------------------------------|
 |------------------------------------|
 |---5-----5----7-----x---7b8-(7)-7-5-|
 |---5-----5----7-----x---7b8-(7)-7-5-|
 |-0----------------------------------|
 |------------------------------------|

N.(A)
Gtr II
PM~ PM~ PM~ PM~
E a e E E a e E E E E a e E E a e E E S +S
 
 |-------------------------|-----------------------------|
 |-------------------------|-----------------------------|
 |-------------------5b5.5-|-------------------6b7==(6)r=|
 |---5h8-7---5h8-7---------|---5h8-7---5h8-7---7----(7)--|
 |-0-------0-------0-------|-0-------0-------0-----------|
 |-------------------------|-----------------------------|

|
| W W
 
 |-------------------------|-----------------------------|
 |-------------------------|-----------------------------|
 |-------------------------|-----------------------------|
 |-------------------------|-----------------------------|
 |-------------------------|-----------------------------|
 |-------------------------|-----------------------------|

To Coda
PM~ PM~ [C5] [D5] ~~~[C5]
 
 |---3---|

+E a e E E a e E E E E E +e E S +S S E E e
 
 |-----------------------|------------------------------------|
 |-----------------------|---8----(8)-8-8---------------------|
 |-(6)-----------------5-|---7b9==(7)-7-7r(7)p==5---------5-7-|
 |-(7)-5h8-7---5h8-7-----|------------------------7-----------|
 |-----------0-------0---|-0----------------------------------|
 |-----------------------|------------------------------------|

|
| PM
| W E e Q S S S +S E E
 
 |-----------------------|------------------------------------|
 |-----------------------|------------------------------------|
 |-----------------------|---5-----5----7-----x---7b8-(7)-7-5-|
 |-----------------------|---5-----5----7-----x---7b8-(7)-7-5-|
 |-----------------------|-0----------------------------------|
 |-----------------------|------------------------------------|

~
|--3--|
Q Q S +S S E E E
 
 |-----------------------------|
 |-8-----8-----8-(8)-----------|
 |-7b9---7b9===7r(7)p5---5-7\--|
 |---------------------7-------|
 |-----------------------------|
 |-----------------------------|

|
| e E Q H
 
 |-----------------------------|
 |-----------------------------|
 |-5---------------------------|
 |-5---------------------------|
 |-----------------------------|
 |-----------------------------|

N.C.(A5)
Gtrs I, II
~ ~ ~ ~ ~ ~
E E E E E E E S S S S E E E E E E S S
 
 |-------------------|---------------------|
 |-------------------|---------------------|
 |---2---2---2-------|-----2---2---2-------|
 |---------------0-2-|-----------------0-2-|
 |-0---0---0---3-----|-3p0---0---0---3-----|
 |-------------------|---------------------|

~ ~ ~[C5] [B5] [F5G5] [D5]
S S E E E E E E S S Q E. S e E S S E
 
 |---------------------|-------------------|
 |---------------------|-------------------|
 |-----2---2---2-------|-5--4------------7-|
 |-----------------0-2-|-5--4----3-5-x-x-7-|
 |-3p0---0---0---3-----|-3--2----3-5-x-x-5-|
 |---------------------|-------0-1-3-x-x---|

3rd Verse
[E5]Gtr II[D5]
a a E S S E E S S E S S a E E S S E E S S E E a S S
 
 |----------------------------------|-----------------------------------|
 |----------------------------------|-----------------------------------|
 |--------9-7-9-----7s9-7-9s=7-7s12-|--------9-7-9-------7s9------------|
 |----------------------------------|------------------------7-7--------|
 |-7h8p7--7-5-7-----5s7-9-7s=5-5s10-|--------7-5-7-------5s7-5-5-5S7h10-|
 |----------------0-----------------|-----0----------0------------------|

|
| Gtr I
| a a E. S S S E S S E Q a a E. S S S S S e E E a S S
 
 |----------------------------------|-----------------------------------|
 |----------------------------------|-----------------------------------|
 |----------------------------------|-----------------------------------|
 |----------9-x-x-7-x-x-7-9\--------|----------9-x-x-7h9-9---7-7--------|
 |-7h8p7----7-x-x-7-x-x-7-7\--------|-7h8p7----7-x-x-7---7---5-5-5S7h10-|
 |----------------------------------|-----------------------------------|

[E5]~~[D5] [C5]
E S S E E S S E S S a E E S S S S S S S S E S S E
 
 |------------------------------|----------------------------------|
 |------------------------------|----------------------------------|
 |----9-7-9-----9s7-9-9s=7-7s12-|--------9-7-9-9-9s7-9s10s9-9s12-7-|
 |------------------------------|----------------------------------|
 |-7--7-5-7-----7s5-7-7s=5-5s10-|--------7-5-7-7-7s5-7s12s7-7s10-5-|
 |------------0-----------------|-----0----------------------------|

|
| ~~
| E. S S S E S S E Q a a E. S S S S S S S E E E
 
 |------------------------------|----------------------------------|
 |------------------------------|----------------------------------|
 |------------------------------|----------------------------------|
 |------9-x-x-7-x-x-7-9\--------|----------9-x-x-7h9-x--x-7-7----5-|
 |-7----7-x-x-7-x-x-7-7\--------|-7h8p7----7-x-x-7---x--x-5-5----3-|
 |------------------------------|----------------------------------|

[(A)]Gtr I
E E E E E E E S S E E E E E E E E
 
 |--------------------------------------|-----------------------------------||
 |--------------------------------------|-----------------------------------||
 |-------2----2------------2------------|-----2-------2-------5---------7---||
 |----------------------------------0-2-|-----------------------------------||
 |-0--------0----0--------------3-------|--0------0-------0-----0-----------||
 |--------------------------------------|-----------------------------------||

|
| Gtr II
| E E E E E E E S S E E E E E E E E
 
 |--------------------------------------|-----------------------------------||
 |--------------------------------------|-----------------------------------||
 |-------2----2------------2------------|-----2-------2-------0-------------||
 |----------------------------------0-2-|-------------------------------4---||
 |-0--------0----0--------------3-------|--0------0-------0-----0-----------||
 |--------------------------------------|-----------------------------------||

|
| Gtr III
| ~
| E +E E E +S S +S S S S S S E S S S S E S S E S +S S S
 
 |----------8-8-(8)---------------------|-----------------------------------||
 |-8b10-(8)---------8pb10r(8)p5-8p5-----|---------5h7-7b8-7p5-7-7b8-(7)-----||
 |----------------------------------5-5-|-(5)-----5h7-7b9-7p5-7-7b9-(7)-5h7-||
 |--------------------------------------|-----7p5---------------------------||
 |--------------------------------------|-----------------------------------||
 |--------------------------------------|-----------------------------------||

4th Verse
[E5]Gtr II
a a E S S E E S S E S S a E
 
 |------------------------------------|
 |------------------------------------|
 |--------9-7-9-----7s9-7--9s==7-7s12-|
 |------------------------------------|
 |-7h8p7--7-5-7-----5s7-9--7s==5-5s10-|
 |----------------0-------------------|

|
| Gtr I
| a a E. S S S E S S E Q
 
 |------------------------------------|
 |------------------------------------|
 |------------------------------------|
 |----------9-x-x-7-x-x-7--9\---------|
 |-7h8p7----7-x-x-7-x-x-7--7\---------|
 |------------------------------------|

|
| Gtr III
| ~~
| a H. Q
 
 |------------------------------------|
 |------------------------------------|
 |-7S==9------------------(9)\--------|
 |------------------------------------|
 |------------------------------------|
 |------------------------------------|

E S S E E S S [D5]E E a S S
 
 |-----------------------------------------------|
 |-----------------------------------------------|
 |----------9-7-9-------7s9----------------------|
 |--------------------------7---7----------------|
 |----------7-5-7-------5s7-5---5----5S=7h====10-|
 |-----0------------0----------------------------|

|
| a a E. S S S S S e E E a S S
 
 |-----------------------------------------------|
 |-----------------------------------------------|
 |-----------------------------------------------|
 |------------9-x-x-7h9-9---7---7----------------|
 |-7h8p7------7-x-x-7---7---5---5----5S=7h====10-|
 |-----------------------------------------------|

|
| S S S S S S S S S S S S S S E
 
 |-----------------------------------------------|
 |-----x----x-x-------7---7-----8h10---10b12=====|
 |-----x----x-x-9-7---7---7-7h9------------------|
 |-----x----x-x-----9----------------------------|
 |-----------------------------------------------|
 |-----------------------------------------------|

[E5] ~~~~
E S S E E S S E S S a E
 
 |---------------------------------------------|
 |---------------------------------------------|
 |-----------9--7-9------9s==7-9--9s=7-7s12----|
 |---------------------------------------------|
 |------7----7--5-7------7s==5-7--7s=5-5s10----|
 |--------------------0------------------------|

|
| ~~~~
| E. S S S E S S E Q
 
 |---------------------------------------------|
 |---------------------------------------------|
 |---------------------------------------------|
 |--------------9-x-x-7--x---x-7--9\-----------|
 |------7-------7-x-x-7--x---x-7--7\-----------|
 |---------------------------------------------|

|
| ~~
| a +S S Q. +E E S S S S
 
 |---------------------------------------------|
 |-10r(10)-8-------------------------8---10-10-|
 |-----------9----------(9)\-----/9------------|
 |---------------------------------------------|
 |---------------------------------------------|
 |---------------------------------------------|

E S S S S S S S S [D5]E S S [G5]E
 
 |---------------------------------------------------------------------|
 |---------------------------------------------------------------------|
 |----------------9--7--9------9--9s=7--9s====10s=9-----9s====12--7----|
 |---------------------------------------------------------------------|
 |----------------7--5--7------7--7s=5--7s====12s=7-----7s====10--5----|
 |------0--------------------------------------------------------------|

|
| a a E. S S S S S e E E S S
 
 |---------------------------------------------------------------------|
 |---------------------------------------------------------------------|
 |---------------------------------------------------------------------|
 |-------------------9--x------x--7---------------7-----7---------7s12-|
 |-7h8p=7------------7--x------x--7s10-10---------5-----5---------5s10-|
 |---------------------------------------------------------------------|

|
| S +S S S S +S S S S +S S S S +S S S
 
 |---------------------------------------------------------------------|
 |-----10b12r(10)-8h10-10b12r(10)-8h10-10b12r(10)-8h10-10b12r(10)-8h10-|
 |---------------------------------------------------------------------|
 |---------------------------------------------------------------------|
 |---------------------------------------------------------------------|
 |---------------------------------------------------------------------|

[D5]Gtrs I, II[C5/D] [D5]
E. S S S E S S E E E
 
 |-----------------------------------|
 |-----------------------------------|
 |-7-----7-x-x-5---x--x-5----7-----7-|
 |-7-----7-x-x-5---x--x-5----7-----7-|
 |-5-----5-x-x-5---x--x-5----5-----5-|
 |-----------------------------------|

|
| Gtr III
| E E S E S S S S S +S S E
 
 |------------------------7-(7)------|
 |----10-----8-----8h10-----------10-|
 |-7-------7-----7------7-------7----|
 |-----------------------------------|
 |-----------------------------------|
 |-----------------------------------|

D.S. al Coda
E S S S S S S S S [C5] S S E [B5] E
 
 |-------------------------------------------------------||
 |-------------------------------------------------------||
 |---7----7-7--x-x--7-7--7s=========5-----5-5--5--4------||
 |---7----7-7--x-x--7-7--7s=========5-----5-5--5--4------||
 |---5----5-5--x-x--5-5--5s=========3-----5-3--3--2------||
 |-------------------------------------------------------||

|
| ~~
 
 | |------3------|

| E E e e S +S S E e E
 
 |-------------------------------------------------------||
 |-(10)-------13---15---15pb17r(15)p==13------13-15b15.5-||
 |------/14------------------------------14--------------||
 |-------------------------------------------------------||
 |-------------------------------------------------------||
 |-------------------------------------------------------||

&
[A]Gtr I
~ ~~~
|--3--|
Q Q S +S S E E S S H. +E. T T
 
 |----------------------------|------------------|
 |-8----8-----8-(8)-----------|------------------|
 |-7b9--7b9===7r(7)p5---5-7---|--2-------(2)-0h2p|
 |--------------------7-------|------------------|
 |--------------------------0-|-(0)--------------|
 |----------------------------|------------------|

+W
W S +S Q. +H E S S H Q
 
 |------------|---------------------|---5h8p5-----------|
 |------------|---------------------|-------------------|
 |--0---------|-4b6r(4)p2----(2)----|-------------------|
 |------------|---------------------|-------------------|
 |-(0)--------|---------------------|-------------------|
 |------------|---------------------|---------------12\-|

H Q E E
~ ~
E e E +E E E S S S S +E e E +E S S S S S S E
 
 |--------------x---x-x---|--------------x---x-x-------|
 |--------------x---x-x-5-|-(5)----------x---x-x-------|
 |--------------x---x-x-5-|-(5)----------x---x-x-5h7-5-|
 |---5-7-(7)\-------------|-----5-7-(7)\---------------|
 |-0----------------------|----------------------------|
 |------------------------|----------------------------|

+E e E +E S S S S S S E
 
 |--------------x---x---x-x----|
 |--------------x---x---x-x----|
 |-(5)----------x---x---x-x-5--|
 |-----5-7-(7)\----------------|
 |-----------------------------|
 |-----------------------------|

~
+E S S S S S S S S E S S E
 
 |-----------------------------||
 |-----------------------------||
 |-(5)-------------------------||
 |-----5-5-x-5-x-x-5---5-5-7-5-||
 |-------------------7---------||
 |-----------------------------||

Bridge
N.(A)
~ ~
E e E +E S S S S S S E +E e E E E S S S S E
 
 |------------x---x-x---x---|------------------------------|
 |------------x---x-x---x-5-|-(5)-----------8---------8----|
 |------------x---x-x---x-5-|-(5)-------7b9---7b9-(7)---5--|
 |---5-7-(7)\---------------|-----5-7----------------------|
 |-0------------------------|------------------------------|
 |--------------------------|------------------------------|

+E e E +E S S S S S S E E S S E S S E S S S S E
 
 |--------------x---x---x-x---|-----------------------------|
 |--------------x---x---x-x-5-|---8s10s8-8s10s8-8s10s7s10s8-|
 |-(5)----------x---x---x-x-5-|-----------------------------|
 |-----5-7-(7)\---------------|---5s=7s5-5s=7s5-5s=7s4s=7s5-|
 |----------------------------|-----------------------------|
 |----------------------------|-----------------------------|

PM| ~ PM--| PM| ~ PM PM--| ~
S S S S E S S S S S S S S E +S S S S E S S E S S +S S E
 
 |--------------------------------|--------------------------------------|
 |--------------------------------|--------------------------------------|
 |------------------------------5-|-(5)----------------5b7-7-5b7-(5)-7-5-|
 |-----7p5-7--------5h7-----5h7---|-------7p5-7--------------------------|
 |-0-0--------0---0-----0-0-------|-----0--------0---0-------------------|
 |--------------------------------|--------------------------------------|

|
| Gtr II
| ~ ~
| E S S E +E H E S S E +E H
 
 |--------------------------------|--------------------------------------|
 |--------------------------------|--------------------------------------|
 |--------------------------------|--------------------------------------|
 |-----7p5-7-(7)\-----------------|-------7p5-7-(7)\---------------------|
 |--------------------------------|--------------------------------------|
 |--------------------------------|--------------------------------------|

~~~PM ~ PM--|
+S S S S E S S S S S S S S S S E E E E S S S S S S S S
 
 |------------------------------------|----------------------------------------||
 |------------------------------------|-8---8----8---8----8---8-8---8-8-8-8-8--||
 |-(5)----------------------------5h7-|-7b9-7b9--7b9-7b9==7---7-7---7-7-7-7-7r-||
 |-------7p5-7--------5h7-7-7-5h7-----|----------------------------------------||
 |-----0--------0---0-----------------|----------------------------------------||
 |------------------------------------|----------------------------------------||

|
| ~
| E S S E +E H E E E E E E S S E
 
 |------------------------------------|----------------------------------------||
 |------------------------------------|-8---8b10-8---8b10-8-----8--------------||
 |------------------------------------|-7b9-7----7b9-7----7b9---7b9---7p5------||
 |-------7p5-7-(7)\-------------------|-----------------------------------7----||
 |------------------------------------|----------------------------------------||
 |------------------------------------|----------------------------------------||

Chorus
N.(A)
PM~ PM~ PM~ PM~ PM~ PM~
E a e E E a e E E E E a e E E a e E E S +S +E a e E E a e E E E
 
 |-------------------------|----------------------------|-----------------------|
 |-------------------------|----------------------------|-----------------------|
 |-------------------5b5.5-|-------------------6b7==(6)r|=(6)-----------------5-|
 |---5h8-7---5h8-7---------|---5h8-7---5h8-7---7----(7)-|-(7)-5h8-7---5h8-7-----|
 |-0-------0-------0-------|-0-------0-------0----------|-----------0-------0---|
 |-------------------------|----------------------------|-----------------------|

[C5] [D5] ~~~ [C5]~
 
 |---3---|

E E +e e S +S S E E E
 
 |------------------------------------|
 |---8----(8)-8-8-(8)-----------------|
 |---7b9==(7)-7-7r(7)p==5---------5-7-|
 |------------------------7-----------|
 |-0----------------------------------|
 |------------------------------------|

|
| Gtr II
| PM
| E e Q S S S +S E E
 
 |------------------------------------|
 |------------------------------------|
 |---5-----5----7-----x---7b8-(7)-7-5-|
 |---5-----5----7-----x---7b8-(7)-7-5-|
 |-0----------------------------------|
 |------------------------------------|

N.(A)
PM~ PM~ PM~ PM~
E a e E E a e E E E E a e E E a e E E S +S
 
 |-------------------------|-----------------------------|
 |-------------------------|-----------------------------|
 |-------------------5b5.5-|-------------------6b7==(6)r=|
 |---5h8-7---5h8-7---------|---5h8-7---5h8-7---7----(7)--|
 |-0-------0-------0-------|-0-------0-------0-----------|
 |-------------------------|-----------------------------|

|
| W W
 
 |-------------------------|-----------------------------|
 |-------------------------|-----------------------------|
 |-------------------------|-----------------------------|
 |-------------------------|-----------------------------|
 |-------------------------|-----------------------------|
 |-------------------------|-----------------------------|

PM~ PM~ [C5] [D5] ~~~[C5]
 
 |---3---|

+E a e E E a e E E E E E +E e S +S S E E E
 
 |-----------------------|------------------------------------|
 |-----------------------|---8----(8)-8-8---------------------|
 |-(6)-----------------5-|---7b9==(7)-7-7r(7)p==5---------5-7-|
 |-(7)-5h8-7---5h8-7-----|------------------------7-----------|
 |-----------0-------0---|-0----------------------------------|
 |-----------------------|------------------------------------|

|
| PM
| W E e Q S S S +S E E
 
 |-----------------------|------------------------------------|
 |-----------------------|------------------------------------|
 |-----------------------|---5-----5----7-----x---7b8-(7)-7-5-|
 |-----------------------|---5-----5----7-----x---7b8-(7)-7-5-|
 |-----------------------|-0----------------------------------|
 |-----------------------|------------------------------------|

~
|--3--|
Q Q S +S S E E S S
 
 |-----------------------------|
 |-8-----8-----8-(8)-----------|
 |-7b9---7b9===7r(7)p5---5-7---|
 |---------------------7-------|
 |---------------------------0-|
 |-----------------------------|

|
| e E Q H
 
 |-----------------------------|
 |-----------------------------|
 |-5---------------------------|
 |-5---------------------------|
 |-----------------------------|
 |-----------------------------|

Outro
N.C.(A) N.(A)
Gtrs I, II
~~~ ~ ~ ~ ~ ~ ~
W E E E E E E E S S S S E E E E E E S S
 
 |------------||-------------------|---------------------|
 |------------||-------------------|---------------------|
 |--2---------||---2---2---2-------|-----2---2---2-------|
 |------------||---------------0-2-|-----------------0-2-|
 |-(0)--------||-0---0---0---3-----|-3p0---0---0---3-----|
 |------------||-------------------|---------------------|

~ ~ ~
S S E E E E E E S S
 
 |--------------------------------|
 |--------------------------------|
 |-----2--------2-----2-----------|
 |----------------------------0-2-|
 |-3p0----0-------0-------3-------|
 |--------------------------------|

|
| Gtr III
| E E +S E. S E S S S S S
 
 |-----5-(5)----------------------|
 |-----------8----------5---------|
 |----------------5h7-----7p5-----|
 |-7--------------------------7p5-|
 |--------------------------------|
 |--------------------------------|

C5 B5 F5G5 D5 N.(A)
~ ~ ~
Q E. S e E S S E E E E E E E E S S
 
 |-------------------|-------------------------------|
 |-------------------|-------------------------------|
 |-5--4------------7-|---2--------2-----2------------|
 |-5--4----3-5-x-x-7-|--------------------------0-2--|
 |-3--2----3-5-x-x-5-|-0----0-------0-------3--------|
 |-------0-1-3-x-x---|-------------------------------|

|
| W E E +S E. S E S S S S S
 
 |-------------------|---5-(5)-----------------------|
 |-------------------|---------8----------5----------|
 |-------------------|--------------5h7-----7p5------|
 |-7-----------------|-7------------------------7-5--|
 |-------------------|-------------------------------|
 |-------------------|-------------------------------|

~ ~ ~
S S E E E E E E S S
 
 |--------------------------------|
 |--------------------------------|
 |-----2--------2-----2-----------|
 |----------------------------0-2-|
 |-3p0----0-------0-------3-------|
 |--------------------------------|

|
| E E +S E. S S S S S S S S
 
 |-----5-(5)----------------------|
 |-----------8--------5-----5---5-|
 |----------------5h7---5h7---7---|
 |-7------------------------------|
 |--------------------------------|
 |--------------------------------|

~ ~ ~[C5] [B5] [F5] [G5] [D5]
S S E E E E E E S S Q E. S e E S S E
 
 |--------------------------------|-------------------------|
 |--------------------------------|-------------------------|
 |-----2--------2-----2-----------|-5-----4---------------7-|
 |----------------------------0-2-|-5-----4-----3---5-x-x-7-|
 |-3p0----0-------0-------3-------|-3-----2-----3---5-x-x-5-|
 |--------------------------------|----------0--1---3-x-x---|

|
| ~~~~~~~
| E E +S E. S E S S S S S S E. +Q +E E Q
 
 |-----5-(5)----------------------|-------------------------|
 |-----------8----------5---------|-------------------------|
 |----------------5h7-----7p5-----|-5-7--(7)---(7)\---------|
 |-7--------------------------7p5-|-------------------------|
 |--------------------------------|-------------------------|
 |--------------------------------|-------------------------|

N.C.(A)
Gtr II
~~ ~~ ~~
E E E E E E E S S
 
 |----------------------------------------------|
 |----------------------------------------------|
 |-----2------2--------2------------------------|
 |------------------------------------------0-2-|
 |---0-----0-------0---------3------------------|
 |----------------------------------------------|

|
| Gtr III
| ~~
| E e E S S E S S T +S T E
 
 |-----8---8-----------8h10-10b11r(10)---8------|
 |-/10-8---8-10-8-10-----------------------10---|
 |----------------------------------------------|
 |----------------------------------------------|
 |----------------------------------------------|
 |----------------------------------------------|

|
| Gtr I
| ~~
| E S S E S S S S S S S S E
 
 |----------------------------------------------|
 |----------------------------------------------|
 |------------------------------------------5---|
 |-----7p5-7-------5h7-------5h========7--------|
 |---0--------0-0------0--0---------------------|
 |----------------------------------------------|

~~ ~~ ~~
S S E E E E E E S S
 
 |-----------------------------------------------|
 |-----------------------------------------------|
 |--------2------2-----------2-------------------|
 |-------------------------------------------0-2-|
 |---3p=0-----0-------0----------------3---------|
 |-----------------------------------------------|

|
| ~~
| +E e E S S S S S S +S S E
 
 |--------8---8-----------8-10-10b11r(10)p8-10---|
 |-(10)---8---8-10-8-10--------------------------|
 |-----------------------------------------------|
 |-----------------------------------------------|
 |-----------------------------------------------|
 |-----------------------------------------------|

|
| ~~
| +S S S S E S S E S S +S S E
 
 |-----------------------------------------------|
 |-----------------------------------------------|
 |--(5)---------------5b7----7--5b7---(5)-7--5---|
 |--------7p5-7----------------------------------|
 |------0--------0-0-----------------------------|
 |-----------------------------------------------|

~~~~ ~~ ~
S S E E E E E E S S
 
 |--------------------------------------------|
 |--------------------------------------------|
 |-----------2------2-------2-----------------|
 |----------------------------------------0-2-|
 |---3p==0-------0------0------------3--------|
 |--------------------------------------------|

|
| +E e E e S S e a +S S S S
 
 |-(10)\---------8----------------------------|
 |---------/10-----10---8p7-5-----------------|
 |------------------------------7b8r(7)p5-7p5-|
 |--------------------------------------------|
 |--------------------------------------------|
 |--------------------------------------------|

|
| ~~~~~
| +S S S S E S S S S S S S S S S
 
 |--------------------------------------------|
 |--------------------------------------------|
 |--(5)-----------------------------------5-5-|
 |-----------7p5-7------5h7-7-7------5h=7-----|
 |-------0----------0-0-----------------------|
 |--------------------------------------------|

Q E. S e E S S E
 
 |------------------------------------|
 |------------------------------------|
 |-5-------4-----------------------7--|
 |-5-------4-----------3-5--x----x-7--|
 |-3-------2-----------3-5--x----x-5--|
 |------------------0--1-3--x----x----|

|
| ~~~
| S +E. Q H
 
 |------------------------------------|
 |------------------------------------|
 |-7b8r(7)-7\-------------------------|
 |------------------------------------|
 |------------------------------------|
 |------------------------------------|

|
| ~~~ ~~~~ ~
| S +E. S +E S e E +E E
 
 |------------------------------------|
 |-8---(8)-8---(8)-(8)----------------|
 |-7b9r(7)-7b9r(7)p=5--7-5-(5)b6------|
 |---------------------------------7--|
 |------------------------------------|
 |------------------------------------|

N.(A)
~~ ~ ~ ~~ ~ ~
E E E E E E E S S S S E E E E E E S S
 
 |--------------------------------|-----------------------------------------|
 |--------------------------------|-----------------------------------------|
 |---2-------2-------2------------|-------2-------2-----------2-------------|
 |---------------------------0--2-|-------------------------------------0-2-|
 |-0-----0-------0-------3--------|--3p=0-----0-------0------------3--------|
 |--------------------------------|-----------------------------------------|

|
| ~
| E S S S S S S S S S S S S E E S S S S S S S S S S e E
 
 |---8----------------------------|-------8---------------------------------|
 |---8-7-5-------7-----------5\---|-------8-7-5-------7---------------------|
 |---------7-5---7-5---------5\---|-------------7-5---7-----5------5----5---|
 |-------------7-----7-5-5h7------|-----------------7---------7-5-----------|
 |--------------------------------|-----------------------------------------|
 |--------------------------------|-----------------------------------------|

|
| ~~~~~
| E S S E S S S S S S S S E +S S S S E S S E S S +S S E
 
 |--------------------------------|-----------------------------------------|
 |--------------------------------|-------------------5b5.5-----5-(5)-------|
 |---------------------------5----|-(5)---------------5b5.5-----5-(5)-------|
 |---7p5-7-------5h7-----5h7------|-------7p5-7---------------7-------7-7---|
 |-0---------0-0-----0-0----------|-----0---------0-0-----------------------|
 |--------------------------------|-----------------------------------------|

~~ ~ ~~
S S E E E E E E S S
 
 |--------------------------------------------|
 |--------------------------------------------|
 |-------2---------2---------2----------------|
 |---------------------------------------0-2--|
 |--3p=0-----0---------0---------3------------|
 |--------------------------------------------|

|
| E S S S S S S S S S S S +S S S
 
 |--------------------------------------------|
 |--------------------------------------------|
 |-------5-5-5b6---5-5-5b6---5h7-7b9r(7)-5h7--|
 |---------------7---------7------------------|
 |--------------------------------------------|
 |--------------------------------------------|

|
|~~~~~
| +S S S S E S S S S S S S S S S
 
 |--------------------------------------------|
 |--------------------------------------------|
 |---------------------------------------5h7--|
 |-(7)---7p5-7---------5h==7-7-7-5h===7-------|
 |-----0-----------0-0------------------------|
 |--------------------------------------------|

H.=H
[C5]Q [B5]E. S [F5G5]E e E [C5]e
 
 |----------------------------------|
 |----------------------------------|
 |-5----4---------------------5-----|
 |-5----4-------------3-5-----5-----|
 |-3----2-------------3-5-----3-----|
 |------------------0-1-3-----------|

|
 
 | |---3----|

| Q E +E E e E S S S S
 
 |----------------------------------|
 |-8----8---(8)-(8)---8-8-8-8-8-(8)-|
 |-7b9--7b9r(7)p=5----7-5-5-5-7p=5--|
 |----------------------------------|
 |----------------------------------|
 |----------------------------------|

|
 
 | |---3----|

| Q E +E E e E S S e
 
 |----------------------------------|
 |-8----8---(8)-(8)---8-8-8-8-8-----|
 |-7b9--7b9r(7)p=5----7-5-5-5-7-----|
 |----------------------------------|
 |----------------------------------|
 |----------------------------------|

[D5]W +W W
 
 |--------------------------------|------------------|-----------*|
 |--------------------------------|------------------|-----------*|
 |-7------------------------------|-(7)--------------|-----------*|
 |-7------------------------------|-(7)--------------|-----------*|
 |-5------------------------------|-(5)--------------|-----------*|
 |--------------------------------|------------------|-----------*|

|
| W +W W
 
 |--------------------------------|------------------|-----------*|
 |-7------------------------------|-(7)--------------|-----------*|
 |-7------------------------------|-(7)--------------|-----------*|
 |--------------------------------|------------------|-----------*|
 |--------------------------------|------------------|-----------*|
 |--------------------------------|------------------|-----------*|

|
| ~~~~ ~~~
| Q S +E S e E +E a E +H. +E. T T H H
 
 |--------------------------------|------------------|-----------*|
 |-8----8---(8)-(8)-7-------------|------------------|-----------*|
 |-7b9--7b9r(7)p=5--7-5-(5)b7-5s2-|-(2)------(2)p0h2p|=0---------*|
 |--------------------------------|------------------|-----------*|
 |--------------------------------|------------------|-----------*|
 |--------------------------------|------------------|-----------*|


Important: The song above is NOT stored on the Chordie server. The original song is hosted at www.guitaretab.com. Chordie works as a search engine and provides on-the-fly formatting. Chordie does not index songs against artists'/composers' will. To remove this song please click here.

Text color:
Chord color:
Chord grids: 
Font size:    
Page size: 

A B5 C5 C5/D D5 E5 F5 G5
Rate #2 of 2 versions

Jango Player

Login - add to songbook

SHARE PAGE  



You need to log in to post comments