Guitar Tabs, Chords and Lyrics
Major upgrade!! After one year development the new version of Chordie is now online! Please give feedback.


Trapped Under Ice   Metallica

 
 PM| PM| PM------|

 


 E S S +E E +H E S S +E E +H +W S S S S E E


 

 
 |--------------------|-------------------------|------------|-------------|
 |--------------------|-----------2-(2)---------|-(2)--------|-------------|
 |--------------------|-----------2-(2)---------|-(2)--------|-------------|
 |-----0-(0)-2-(2)----|-----0-(0)-2-(2)---------|-(2)--------|-4-4-4-4-4---|
 |-----0-(0)-2-(2)----|-----------0-(0)---------|-(0)--------|-2-2-2-2-2---|
 |-0-0----------------|-0-0---------------------|------------|-------------|

 


 |


 | Gtr III Gtr II


 | \7__/


 

 
 | PM------|

 


 | W H Q a Q +W S S S S E E


 

 
 |--------------------|-------------------------|------------|-------------|
 |--------------------|-------------------------|------------|-------------|
 |--------------------|-------------------------|------------|-------------|
 |--------------------|-------------------------|------------|-4-4-4-4-4---|
 |--------------------|-------------------------|------------|-2-2-2-2-2---|
 |--------------------|------------------0---0--|-(0)--------|-------------|

 


 


 [4/4] Gtrs I, II


 PM| PM|


 E S S +E E +H E S S +E E E E Q


 

 
 |--------------------|--------------------|
 |--------------------|--------------------|
 |--------------------|--------------------|
 |-----0-(0)-2-(2)----|-----0-(0)-2-0-3-3--|
 |-----0-(0)-2-(2)----|-----0-(0)-2-0-3-3--|
 |-0-0----------------|-0-0----------------|

 


 |-Rhy Fig 1 end Rhy Fig 1-|


 


 Rhy Fig 1


 


 Gtrs I, II


 w/Rhy Fig 1 x4


 Gtr III


 W W


 

 
 |----------------------|---------------------|
 |----------------------|---------------------|
 |----------------------|-11------------------|
 |----------------------|-11------------------|
 |-[2]*-----------------|--9------------------|
 |----------------------|---------------------|

 


 *feedback


 


 W H a Q Q


 

 
 |---------------------|-----------------------------|
 |---------------------|-----------------------------|
 |-12------------------|-14-----------(14)s17---16---|
 |-12------------------|-14-----------(14)s17---16---|
 |-10------------------|-12-----------(12)s15---14---|
 |---------------------|-----------------------------|

 


 


 


 W W


 

 
 |--------------------|---------------------|
 |--------------------|---------------------|
 |-9------------------|-11------------------|
 |-9------------------|-11------------------|
 |-7------------------|--9------------------|
 |--------------------|---------------------|

 


 


 


 ~~


 W Q. a e H


 

 
 |---------------------|------------------------------||
 |---------------------|------------------------------||
 |-12------------------|-14---------------------------||
 |-12------------------|-14---------------------------||
 |-10------------------|-12----------(12)s19-19-------||
 |---------------------|------------------------------||

 


 


 Guitar Solo


 Gtr I


 

 
 PM------------------------------------------------------------

 


 S S S S S S S S S S S S S S S S


 

 
 |---------------------------------------------------------------|
 |---------------------------------------------------------------|
 |---------------------------------------------------------------|
 |---------------------------------------------------------------|
 |--4------------------------------4-----------------------------|
 |--0h===2--2-2--2-----2--2-----2--0h===2--2-2--2-----2--2-----2-|

 


 |-Rhy Fig 2


 |


 | Gtr III


 | E E S S S S E E S S S S


 

 
 |---------14---------14-------14---------14---------14-------14-|
 |-17b19--------17b19----17b19----17b19--------17b19----17b19----|
 |---------------------------------------------------------------|
 |---------------------------------------------------------------|
 |---------------------------------------------------------------|
 |---------------------------------------------------------------|
 ----------------------|

 


 S S S S S S S S E E E E


 

 
 |--------------------------------------------------|
 |--------------------------------------------------|
 |--------------------------------------------------|
 |--------------------------5-----4-----2-----4-----|
 |--4-----------------------3-----2-----0-----2-----|
 |--0h=2--2--2--2--2--2--2--------------------------|

 


 | end Rhy Fig 2-|


 |


 

 
 | PM------|

 


 | S S S S S S S S S S S S S S S S


 

 
 |-17p14-14-14-17p14--------------------------------|
 |-------------------17-14-14-14-17p14--------------|
 |-------------------------------------16-14-14-14--|
 |--------------------------------------------------|
 |--------------------------------------------------|
 |--------------------------------------------------|

 


 


 w/Rhy Fig 2 x2


 Q Q Q E. S


 

 
 |------------------------------------------------------|
 |-17----------17----------17----------17--------17-----|
 |-16b18-------16b18-------16b18-------16b18-----16b18==|
 |------------------------------------------------------|
 |------------------------------------------------------|
 |------------------------------------------------------|

 


 


 


 ~~~~~


 +Q +E E Q E E


 

 
 |------------------------------------14-|
 |-(17)-------(17)p==14---17b19---/17----|
 |-(16)r======(16)p==14------------------|
 |---------------------------------------|
 |---------------------------------------|
 |---------------------------------------|
 |-------6-------|

 


 S S S S S S S S S S S S S S S S S S


 

 
 |-18-16-14-12-15-14-12-10-14-12-10-9-12-12---10-9s7---9-|
 |-------------------------------------------------------|
 |-------------------------------------------------------|
 |-------------------------------------------------------|
 |-------------------------------------------------------|
 |-------------------------------------------------------|
 |------6------| |------6------| |----5----|

 


 S S S S S S S S S S S S S S S S S S S S S


 

 
 |-10-9---7-7s5---9-9-7---5-5s4---7-7-5-4---2-5-4-2-(0)-5p===|
 |-----------------------------------------------------------|
 |-----------------------------------------------------------|
 |-----------------------------------------------------------|
 |-----------------------------------------------------------|
 |-----------------------------------------------------------|

 


 


 w/Rhy Fig 2 - 1st bar only


 

 
 |--3--| |--3--| |--3--|

 


 S S S S S S S T T T T T T T T S S S S S S S S


 

 
 |-4p2p0-5p4p2p==0-5p4p2p0-2p0-------------------------|
 |-----------------------------3p2p0-5p==2p0-0-2h3p==0-|
 |-----------------------------------------------------|
 |-----------------------------------------------------|
 |-----------------------------------------------------|
 |-----------------------------------------------------|
 ---------------------------|

 


 S S S S S S S S S S S S S E.


 

 
 |------------------------------------||
 |------------------------------------||
 |------------------------------------||
 |-----------------------------4s5----||
 |-4------------------2--2-2-2-2s3----||
 |-0h2--2--2-2-2-2-2------------------||

 


 |


 | \7


 | E Q. +H


 

 
 |------------------------------------||
 |------------------------------------||
 |-0---[2]-----------(2)--------------||
 |------------------------------------||
 |------------------------------------||
 |------------------------------------||


Important: The song above is NOT stored on the Chordie server. The original song is hosted at www.guitaretab.com. Chordie works as a search engine and provides on-the-fly formatting. Chordie does not index songs against artists'/composers' will. To remove this song please click here.

This song is displayed as text-only. Transposing and tuning is only available for chordpro-songs.
Rate #1 of 5 versions

Login - add to songbook

SHARE PAGE  



You need to log in to post comments