Guitar Tabs, Chords and Lyrics
Major upgrade!! After one year development the new version of Chordie is now online! Please give feedback.


The End of the Line  Metallica

This is all I've done so far, roughly the first 4 minutes. It may not be 100% but I
it's pretty close and would be a good starting point if someone wants to do the whole thing.
got the album this morning, hope s'all cool.
I did it in Guitar Pro so I may upload that instead at some point.
Standard Tuning
Intro
PM PM
E. E S S S S S Q. S S S S S S S S S S S S S S S S
 
 E||--------------------------|-----------------------------------------|
 B||--------------------------|-----------------------------------------|
 G||--------------------------|-----------------------------------------|
 D||--------------------------|-----------------------------------------|
 A||--3---2----5---5---2------|--8-8-8-7~-L-7-10-10-10-7~-L-7-5-7-------|
 E||--1---0--0-3---3---0------|-----------------------------------0--0--|

PM PM
E. E S S S S S Q. S S S S S S S S S S S S S S S S
 
 --------------------------|-----------------------------------------|
 --------------------------|-----------------------------------------|
 --------------------------|-----------------------------------------|
 --------------------------|-----------------------------------------|
 --3---2----5---5---2------|--8-8-8-7~-L-7-10-10-10-7~-L-7-5-7-------|
 --1---0--0-3---3---0------|-----------------------------------0--0--|

PM PM
E. E S S S S S Q. S S S S S S S S S S S S S S S S
 
 --------------------------|-----------------------------------------|
 --------------------------|-----------------------------------------|
 --------------------------|-----------------------------------------|
 --------------------------|-----------------------------------------|
 --3---2----5---5---2------|--8-8-8-7~-L-7-10-10-10-7~-L-7-5-7-------|
 --1---0--0-3---3---0------|-----------------------------------0--0--|

E. E S S S S S Q. S S S S S S S S S S S S S S S S
 
 --------------------------|---------------------------------------|
 --------------------------|---------------------------------------|
 --------------------------|---------------------------------------|
 --------------------------|---------------------------------------|
 --3---2----5---5---2------|--8-8-8-7~-L-7-10-10-10-7~-L-7-5-7-----|
 --1---0--0-3---3---0------|---------------------------------------|

PM PM PM PM PM PM
S S S S S S S S S S S S S S S S
 
 -----------------------------------------|
 -----------------------------------------|
 -----------------------------------------|
 -----------------------------------------|
 --3-3-3-2---2-2h-5-5---------------------|
 --1-1-1-0---0-0h-3-3---0--0--0--0--0--0--|

PM PM PM PM PM PM
S S S S S S S S S S S S S S S S
 
 -----------------------------------------|
 -----------------------------------------|
 -----------------------------------------|
 -----------------------------------------|
 --3-3-3-2---2-2h-5-5---------------------|
 --1-1-1-0---0-0h-3-3---0--0--0--0--0--0--|

PM PM PM PM PM PM
S S S S S S S S S S S S S S S S
 
 -----------------------------------------|
 -----------------------------------------|
 -----------------------------------------|
 -----------------------------------------|
 --3-3-3-2---2-2h-5-5---------------------|
 --1-1-1-0---0-0h-3-3---0--0--0--0--0--0--|

PM PM PM PM PM PM
S S S S S S S S S S S S S S S S E. E S S S S S Q.
 
 -----------------------------------------|----------------------------|
 -----------------------------------------|----------------------------|
 -----------------------------------------|----------------------------|
 -----------------------------------------|----------------------------|
 --3-3-3-2---2-2h-5-5---------------------|--8---7----10---10---7------|
 --1-1-1-0---0-0h-3-3---0--0--0--0--0--0--|--6---5--5--8----8---5------|

E. E S S S S S E E E W W
 
 -------------------------------|-------------------|-------------------|
 -------------------------------|-------------------|-------------------|
 -------------------------------|-------------------|-------------------|
 -------------------------------|-------------------|-------------------|
 --10---9----12---12---9-----2--|--L----------------|--L----------------|
 ---8---7--7-10---10---7-----0--|--L----------------|--L----------------|

Riff 1
E. S S S E. S S S S S E E. S S S E. S S S S S E
 
 -------------------------------|-------------------------------|
 -------------------------------|-------------------------------|
 -------------------------------|-------------------------------|
 -------------------------------|-------------------------------|
 -----------------------5---7~--|-----------------------5---7~--|
 --0---0-5h-6-0---0-5-6---6-----|--0---0-5h-6-0---0-5-6---6-----|

E. S S S E. S S S S S E E. S S S E. S S S S S E
 
 -------------------------------|-------------------------------|
 -------------------------------|-------------------------------|
 -------------------------------|-------------------------------|
 -------------------------------|-----------------------5-------|
 -----------------------5---7~--|-------------------------5-7~--|
 --0---0-5h-6-0---0-5-6---6-----|--0---0-5h-6-0---0-5-6---------|

E. S S S E. S S S S S E E. S S S E. S S S S S E
 
 -------------------------------|-------------------------------|
 -------------------------------|-------------------------------|
 -------------------------------|-------------------------------|
 -------------------------------|-------------------------------|
 -----------------------5---7~--|-----------------------5---7~--|
 --0---0-5h-6-0---0-5-6---6-----|--0---0-5h-6-0---0-5-6---6-----|

PM PM PM PM PM PM PM
E. S S S E. S S S S S E E. S S S E. S S S S S S S
 
 -------------------------------|--------------------------------------|
 -------------------------------|--------------------------------------|
 -------------------------------|--------------------------------------|
 -------------------------------|--------------------------------------|
 -----------------------5---7~--|--------------------------------------|
 --0---0-5h-6-0---0-5-6---6-----|--0---0-5h-6-0---0--0--0--0--0--0--0--|

Riff 2
PM PM PM PM PM PM PM PM PM
S S S S S S S S S S S S S S S S
 
 ----------------------------------------------|
 ----------------------------------------------|
 ----------------------------------------------|
 ----------------------------------------------|
 --2----------7S-8-------------7S-8-------7S-9-|
 --0-0--0--0--5S-6-0--0--0--0--5S-6-0--0--5S-7-|

PM PM PM PM PM PM PM PM PM
S S S S S S S S S S S S S S S S
 
 ----------------------------------------------|
 ----------------------------------------------|
 ----------------------------------------------|
 ----------------------------------------------|
 --2----------7S-8-------------7S-8-------7S-9-|
 --0-0--0--0--5S-6-0--0--0--0--5S-6-0--0--5S-7-|

PM PM PM PM PM PM PM PM PM
S S S S S S S S S S S S S S S S
 
 ----------------------------------------------|
 ----------------------------------------------|
 ----------------------------------------------|
 ----------------------------------------------|
 --2----------7S-8-------------7S-8-------7S-9-|
 --0-0--0--0--5S-6-0--0--0--0--5S-6-0--0--5S-7-|

PM PM PM PM PM PM PM PM PM
S S S S S S S S S S S S S S S S
 
 ----------------------------------------------|
 ----------------------------------------------|
 ----------------------------------------------|
 ----------------------------------------------|
 --2----------7S-8-------------7S-8-------7S-9-|
 --0-0--0--0--5S-6-0--0--0--0--5S-6-0--0--5S-7-|

PM PM PM PM PM PM PM PM PM PM PM PM
S S S S S S S S S S S S S S S S
 
 ----------------------------------------------|
 ----------------------------------------------|
 ----------------------------------------------|
 ----------------------------------------------|
 --2----------3----------5----------8----------|
 --0-0--0--0--1-0--0--0--3-0--0--0--6-0--0--0--|

PM PM PM PM PM PM PM
E S S S S S S S S S S S S E
 
 -----------------------------------------|
 -----------------------------------------|
 -----------------9-9S-7S-9-9-------------|
 -----------------------------------------|
 --2--------------7-7S-5S-7-7----------3--|
 --0--0--0--0--0--------------0--0--0--1--|

PM PM PM PM PM
E S S S S S S S S S S S S E
 
 ---------------------------------------|
 ---------------------------------------|
 -----------------9-9S-7S-9---9---------|
 ---------------------------------------|
 --2--------------7-7S-5S-7---7------3--|
 --0--0--0--0--0------------------0--1--|

PM PM PM PM PM PM PM
E S S S S S S S S S S S S E
 
 -----------------------------------------|
 -----------------------------------------|
 -----------------9-9S-7S-9-9-------------|
 -----------------------------------------|
 --2--------------7-7S-5S-7-7----------3--|
 --0--0--0--0--0--------------0--0--0--1--|

PM PM PM PM PM PM PM PM PM PM PM PM
S S S S S S S S S S S S S S S S
 
 ----------------------------------------------|
 ----------------------------------------------|
 ----------------------------------------------|
 ----------------------------------------------|
 --2----------3----------5----------8----------|
 --0-0--0--0--1-0--0--0--3-0--0--0--6-0--0--0--|

PM PM PM PM PM PM PM
E S S S S S S S S S S S S E
 
 -----------------------------------------|
 -----------------------------------------|
 -----------------9-9S-7S-9-9-------------|
 -----------------------------------------|
 --2--------------7-7S-5S-7-7----------3--|
 --0--0--0--0--0--------------0--0--0--1--|

PM PM PM PM PM PM PM
E S S S S S S S S S S S S E
 
 -----------------------------------------|
 -----------------------------------------|
 -----------------9-9S-7S-9-9-------------|
 -----------------------------------------|
 --2--------------7-7S-5S-7-7----------3--|
 --0--0--0--0--0--------------0--0--0--1--|

Second guitar plays the harmony notes
PM PM PM PM PM PM PM
E S S S S S S S S S S S S E
 
 -----------------------------------------|
 -----------------------------------------|
 -----------------------------------------|
 -----------------5-5S-4S-5-5-------------|
 --2--------------7-7S-5S-7-7----------3--|
 --0--0--0--0--0--------------0--0--0--1--|

PM PM PM PM PM PM PM PM PM PM PM PM
S S S S S S S S S S S S S S S S
 
 ----------------------------------------------|
 ----------------------------------------------|
 ----------------------------------------------|
 ----------------------------------------------|
 --2----------3----------5----------8----------|
 --0-0--0--0--1-0--0--0--3-0--0--0--6-0--0--0--|

PM PM PM PM PM PM PM PM
E S S S S S S S S S S S S S S E. S S S E. S S S S S E
 
 --------------------------------------------|-------------------------------|
 --------------------------------------------|-------------------------------|
 --------------------------------------------|-------------------------------|
 --------------------------------------------|-------------------------------|
 --2--------7S-8-------------7S-8-------7S-9-|-----------------------5---7~--|
 --0--0--0--5S-6-0--0--0--0--5S-6-0--0--5S-7-|--0---0-5h-6-0---0-5-6---6-----|

E. S S S E. S S S S S E E. S S S E. S S S S S E
 
 -------------------------------|-------------------------------|
 -------------------------------|-------------------------------|
 -------------------------------|-------------------------------|
 -------------------------------|-------------------------------|
 -----------------------5---7~--|-----------------------5---7~--|
 --0---0-5h-6-0---0-5-6---6-----|--0---0-5h-6-0---0-5-6---6-----|

PM PM PM PM PM PM PM
E. S S S E. S S S S S S S
 
 --------------------------------------|
 --------------------------------------|
 --------------------------------------|
 --------------------------------------|
 --------------------------------------|
 --0---0-5h-6-0---0--0--0--0--0--0--0--|

PM PM PM PM PM PM PM PM PM
S S S S S S S S S S S S S S S S
 
 ----------------------------------------------|
 ----------------------------------------------|
 ----------------------------------------------|
 ----------------------------------------------|
 --2----------7S-8-------------7S-8-------7S-9-|
 --0-0--0--0--5S-6-0--0--0--0--5S-6-0--0--5S-7-|

PM PM PM PM PM PM PM PM PM
S S S S S S S S S S S S S S S S
 
 ----------------------------------------------|
 ----------------------------------------------|
 ----------------------------------------------|
 ----------------------------------------------|
 --2----------7S-8-------------7S-8-------7S-9-|
 --0-0--0--0--5S-6-0--0--0--0--5S-6-0--0--5S-7-|

PM PM PM PM PM PM PM PM PM
S S S S S S S S S S S S S S S S
 
 ----------------------------------------------|
 ----------------------------------------------|
 ----------------------------------------------|
 ----------------------------------------------|
 --2----------7S-8-------------7S-8-------7S-9-|
 --0-0--0--0--5S-6-0--0--0--0--5S-6-0--0--5S-7-|

PM PM PM PM PM PM PM PM PM
S S S S S S S S S S S S S S S S
 
 ----------------------------------------------|
 ----------------------------------------------|
 ----------------------------------------------|
 ----------------------------------------------|
 --2----------7S-8-------------7S-8-------7S-9-|
 --0-0--0--0--5S-6-0--0--0--0--5S-6-0--0--5S-7-|

PM PM PM PM PM PM PM PM PM PM PM PM
S S S S S S S S S S S S S S S S
 
 ----------------------------------------------|
 ----------------------------------------------|
 ----------------------------------------------|
 ----------------------------------------------|
 --2----------3----------5----------8----------|
 --0-0--0--0--1-0--0--0--3-0--0--0--6-0--0--0--|

PM PM PM PM PM PM PM
E S S S S S S S S S S S S E
 
 -----------------------------------------|
 -----------------------------------------|
 -----------------9-9S-7S-9-9-------------|
 -----------------------------------------|
 --2--------------7-7S-5S-7-7----------3--|
 --0--0--0--0--0--------------0--0--0--1--|

PM PM PM PM PM
E S S S S S S S S S S S S E
 
 ---------------------------------------|
 ---------------------------------------|
 -----------------9-9S-7S-9---9---------|
 ---------------------------------------|
 --2--------------7-7S-5S-7---7------3--|
 --0--0--0--0--0------------------0--1--|

PM PM PM PM PM PM PM
E S S S S S S S S S S S S E
 
 -----------------------------------------|
 -----------------------------------------|
 -----------------9-9S-7S-9-9-------------|
 -----------------------------------------|
 --2--------------7-7S-5S-7-7----------3--|
 --0--0--0--0--0--------------0--0--0--1--|

PM PM PM PM PM PM PM PM PM PM PM PM
S S S S S S S S S S S S S S S S
 
 ----------------------------------------------|
 ----------------------------------------------|
 ----------------------------------------------|
 ----------------------------------------------|
 --2----------3----------5----------8----------|
 --0-0--0--0--1-0--0--0--3-0--0--0--6-0--0--0--|

PM PM PM PM PM PM PM
E S S S S S S S S S S S S E
 
 -----------------------------------------|
 -----------------------------------------|
 -----------------9-9S-7S-9-9-------------|
 -----------------------------------------|
 --2--------------7-7S-5S-7-7----------3--|
 --0--0--0--0--0--------------0--0--0--1--|

PM PM PM PM PM PM PM
E S S S S S S S S S S S S E
 
 -----------------------------------------|
 -----------------------------------------|
 -----------------9-9S-7S-9-9-------------|
 -----------------------------------------|
 --2--------------7-7S-5S-7-7----------3--|
 --0--0--0--0--0--------------0--0--0--1--|

PM PM PM PM PM PM PM
E S S S S S S S S S S S S E
 
 -----------------------------------------|
 -----------------------------------------|
 -----------------------------------------|
 -----------------5-5S-4S-5-5-------------|
 --2--------------7-7S-5S-7-7----------3--|
 --0--0--0--0--0--------------0--0--0--1--|

PM PM PM PM PM PM PM PM PM PM PM PM
S S S S S S S S S S S S S S S S
 
 ----------------------------------------------|
 ----------------------------------------------|
 ----------------------------------------------|
 ----------------------------------------------|
 --2----------3----------5----------8----------|
 --0-0--0--0--1-0--0--0--3-0--0--0--6-0--0--0--|

PM PM PM PM PM PM PM PM
E S S S S S S S S S S S S S S
 
 --------------------------------------------|
 --------------------------------------------|
 --------------------------------------------|
 --------------------------------------------|
 --2--------7S-8-------------7S-8-------7S-9-|
 --0--0--0--5S-6-0--0--0--0--5S-6-0--0--5S-7-|

S S S S S S S S S S S S S S S S S S S S S S S S S S S S S S S S
 
 ---------------------------------------|--------------------------------------|
 ---------------------------------------|--------------------------------------|
 ---------------------------------------|--------------------------------------|
 ---------------------------------------|--------------------------------------|
 ---------------------------------------|--------------------------------------|
 -0-5h-6-0-5h-6-0-5h-6-0-5h-6-0-5h-6-6-|--0-5h-6-0-5h-6-0-5h-6-0-5h-6-0-5h66---|

Chorus
E S S S S S S S S S S S S S S
 
 -------------------------------------------|
 -------------------------------------------|
 -------------------------------------------|
 -------------------------------------------|
 -------------------------------------------|
 --0--15-0-15-15-0-15-0-15-15-0-15-15-15-15-|

E S S S S S S S S S S S S S S
 
 -------------------------------------------|
 -------------------------------------------|
 -------------------------------------------|
 -------------------------------------------|
 -------------------------------------------|
 --0--15-0-15-15-0-15-0-15-15-0-15-15-15-15-|

E S S S S S S S S S S S S S S
 
 -------------------------------------------|
 -------------------------------------------|
 -------------------------------------------|
 -------------------------------------------|
 -------------------------------------------|
 --0--15-0-15-15-0-15-0-15-15-0-15-15-15-15-|

E S S S S S S S S S S S S S S
 
 -------------------------------------------|
 -------------------------------------------|
 -------------------------------------------|
 -------------------------------------------|
 -------------------------------------------|
 --0--15-0-15-15-0-15-0-15-15-0-15-15-15-15-|

E S S S S S S S S S S S S S S
 
 -------------------------------------------|
 -------------------------------------------|
 -------------------------------------------|
 -------------------------------------------|
 -------------------------------------------|
 --0--15-0-15-15-0-15-0-15-15-0-15-15-15-15-|

E S S S S S S S S S S S S S S
 
 -------------------------------------------|
 -------------------------------------------|
 -------------------------------------------|
 -------------------------------------------|
 -------------------------------------------|
 --0--15-0-15-15-0-15-0-15-15-0-15-15-15-15-|

E S S S S S S S S S S S S S S
 
 -------------------------------------------|
 -------------------------------------------|
 -------------------------------------------|
 -------------------------------------------|
 -------------------------------------------|
 --0--15-0-15-15-0-15-0-15-15-0-15-15-15-15-|

E S S S S S S S S S S S S S S
 
 -------------------------------------------|
 -------------------------------------------|
 -------------------------------------------|
 -------------------------------------------|
 -------------------------------------------|
 --0--15-0-15-15-0-15-0-15-15-0-15-15-15-15-|
 |--3--| |--3--| |--3--| |--3--|

E E E E E E E E E E E E E. S S S E. S S S S S E
 
 --------------------------------------|-------------------------------|
 --------------------------------------|-------------------------------|
 --------------------------------------|-------------------------------|
 --------------------------------------|-------------------------------|
 --8-----8-----8-----8-----8-----8-----|-----------------------5---7~--|
 --6-----6-----6-----6-----6-----6-----|--0---0-5h-6-0---0-5-6---6-----|

E. S S S E. S S S S S E E. S S S E. S S S S S E
 
 -------------------------------|-------------------------------|
 -------------------------------|-------------------------------|
 -------------------------------|-------------------------------|
 -------------------------------|-------------------------------|
 -----------------------5---7~--|-----------------------5---7~--|
 --0---0-5h-6-0---0-5-6---6-----|--0---0-5h-6-0---0-5-6---6-----|

E. S S S E. S S S S S E E. S S S E. S S S S S E
 
 -------------------------------|-------------------------------|
 -------------------------------|-------------------------------|
 -------------------------------|-------------------------------|
 -----------------------5-------|-------------------------------|
 -------------------------5-7~--|-----------------------5---7~--|
 --0---0-5h-6-0---0-5-6---------|--0---0-5h-6-0---0-5-6---6-----|

E. S S S E. S S S S S E E. S S S E. S S S S S E
 
 -------------------------------|-------------------------------|
 -------------------------------|-------------------------------|
 -------------------------------|-------------------------------|
 -------------------------------|-------------------------------|
 -----------------------5---7~--|-----------------------5---7~--|
 --0---0-5h-6-0---0-5-6---6-----|--0---0-5h-6-0---0-5-6---6-----|

PM PM PM PM PM PM PM
E. S S S E. S S S S S S S
 
 --------------------------------------|
 --------------------------------------|
 --------------------------------------|
 --------------------------------------|
 --------------------------------------|
 --0---0-5h-6-0---0--0--0--0--0--0--0--|

PM PM PM PM PM PM PM PM PM
S S S S S S S S S S S S S S S S
 
 ----------------------------------------------|
 ----------------------------------------------|
 ----------------------------------------------|
 ----------------------------------------------|
 --2----------7S-8-------------7S-8-------7S-9-|
 --0-0--0--0--5S-6-0--0--0--0--5S-6-0--0--5S-7-|

PM PM PM PM PM PM PM PM PM
S S S S S S S S S S S S S S S S
 
 ----------------------------------------------|
 ----------------------------------------------|
 ----------------------------------------------|
 ----------------------------------------------|
 --2----------7S-8-------------7S-8-------7S-9-|
 --0-0--0--0--5S-6-0--0--0--0--5S-6-0--0--5S-7-|

PM PM PM PM PM PM PM PM PM
S S S S S S S S S S S S S S S S
 
 ----------------------------------------------|
 ----------------------------------------------|
 ----------------------------------------------|
 ----------------------------------------------|
 --2----------7S-8-------------7S-8-------7S-9-|
 --0-0--0--0--5S-6-0--0--0--0--5S-6-0--0--5S-7-|

PM PM PM PM PM PM PM PM PM
S S S S S S S S S S S S S S S S
 
 ----------------------------------------------|
 ----------------------------------------------|
 ----------------------------------------------|
 ----------------------------------------------|
 --2----------7S-8-------------7S-8-------7S-9-|
 --0-0--0--0--5S-6-0--0--0--0--5S-6-0--0--5S-7-|

PM PM PM PM PM PM PM PM PM PM PM PM
S S S S S S S S S S S S S S S S
 
 ----------------------------------------------|
 ----------------------------------------------|
 ----------------------------------------------|
 ----------------------------------------------|
 --2----------3----------5----------8----------|
 --0-0--0--0--1-0--0--0--3-0--0--0--6-0--0--0--|

PM PM PM PM PM PM PM
E S S S S S S S S S S S S E
 
 -----------------------------------------|
 -----------------------------------------|
 -----------------9-9S-7S-9-9-------------|
 -----------------------------------------|
 --2--------------7-7S-5S-7-7----------3--|
 --0--0--0--0--0--------------0--0--0--1--|

PM PM PM PM PM
E S S S S S S S S S S S S E
 
 ---------------------------------------|
 ---------------------------------------|
 -----------------9-9S-7S-9---9---------|
 ---------------------------------------|
 --2--------------7-7S-5S-7---7------3--|
 --0--0--0--0--0------------------0--1--|

PM PM PM PM PM PM PM
E S S S S S S S S S S S S E
 
 -----------------------------------------|
 -----------------------------------------|
 -----------------9-9S-7S-9-9-------------|
 -----------------------------------------|
 --2--------------7-7S-5S-7-7----------3--|
 --0--0--0--0--0--------------0--0--0--1--|

PM PM PM PM PM PM PM PM PM PM PM PM
S S S S S S S S S S S S S S S S
 
 ----------------------------------------------|
 ----------------------------------------------|
 ----------------------------------------------|
 ----------------------------------------------|
 --2----------3----------5----------8----------|
 --0-0--0--0--1-0--0--0--3-0--0--0--6-0--0--0--|

PM PM PM PM PM PM PM
E S S S S S S S S S S S S E
 
 -----------------------------------------|
 -----------------------------------------|
 -----------------9-9S-7S-9-9-------------|
 -----------------------------------------|
 --2--------------7-7S-5S-7-7----------3--|
 --0--0--0--0--0--------------0--0--0--1--|

PM PM PM PM PM PM PM
E S S S S S S S S S S S S E
 
 -----------------------------------------|
 -----------------------------------------|
 -----------------9-9S-7S-9-9-------------|
 -----------------------------------------|
 --2--------------7-7S-5S-7-7----------3--|
 --0--0--0--0--0--------------0--0--0--1--|

PM PM PM PM PM PM PM
E S S S S S S S S S S S S E
 
 -----------------------------------------|
 -----------------------------------------|
 -----------------------------------------|
 -----------------5-5S-4S-5-5-------------|
 --2--------------7-7S-5S-7-7----------3--|
 --0--0--0--0--0--------------0--0--0--1--|

PM PM PM PM PM PM PM PM PM PM PM PM
S S S S S S S S S S S S S S S S
 
 ----------------------------------------------|
 ----------------------------------------------|
 ----------------------------------------------|
 ----------------------------------------------|
 --2----------3----------5----------8----------|
 --0-0--0--0--1-0--0--0--3-0--0--0--6-0--0--0--|

PM PM PM PM PM PM PM PM
E S S S S S S S S S S S S S S
 
 --------------------------------------------|
 --------------------------------------------|
 --------------------------------------------|
 --------------------------------------------|
 --2--------7S-8-------------7S-8-------7S-9-|
 --0--0--0--5S-6-0--0--0--0--5S-6-0--0--5S-7-|

S S S S S S S S S S S S S S S S S S S S S S S S S S S S S S S S
 
 ---------------------------------------|--------------------------------------|
 ---------------------------------------|--------------------------------------|
 ---------------------------------------|--------------------------------------|
 ---------------------------------------|--------------------------------------|
 ---------------------------------------|--------------------------------------|
 0-5h-6-0-5h-6-0-5h-6-0-5h-6-0-5h-6-6-|--0-5h-6-0-5h-6-0-5h-6-0-5h-6-0-5h-66---|

E S S S S S S S S S S S S S S
 
 -------------------------------------------|
 -------------------------------------------|
 -------------------------------------------|
 -------------------------------------------|
 -------------------------------------------|
 --0--15-0-15-15-0-15-0-15-15-0-15-15-15-15-|

E S S S S S S S S S S S S S S
 
 -------------------------------------------|
 -------------------------------------------|
 -------------------------------------------|
 -------------------------------------------|
 -------------------------------------------|
 --0--15-0-15-15-0-15-0-15-15-0-15-15-15-15-|

E S S S S S S S S S S S S S S
 
 -------------------------------------------|
 -------------------------------------------|
 -------------------------------------------|
 -------------------------------------------|
 -------------------------------------------|
 --0--15-0-15-15-0-15-0-15-15-0-15-15-15-15-|

E S S S S S S S S S S S S S S
 
 -------------------------------------------|
 -------------------------------------------|
 -------------------------------------------|
 -------------------------------------------|
 -------------------------------------------|
 --0--15-0-15-15-0-15-0-15-15-0-15-15-15-15-|

E S S S S S S S S S S S S S S
 
 -------------------------------------------|
 -------------------------------------------|
 -------------------------------------------|
 -------------------------------------------|
 -------------------------------------------|
 --0--15-0-15-15-0-15-0-15-15-0-15-15-15-15-|

E S S S S S S S S S S S S S S
 
 -------------------------------------------|
 -------------------------------------------|
 -------------------------------------------|
 -------------------------------------------|
 -------------------------------------------|
 --0--15-0-15-15-0-15-0-15-15-0-15-15-15-15-|

E S S S S S S S S S S S S S S
 
 -------------------------------------------|
 -------------------------------------------|
 -------------------------------------------|
 -------------------------------------------|
 -------------------------------------------|
 --0--15-0-15-15-0-15-0-15-15-0-15-15-15-15-|

E S S S S S S S S S S S S S S
 
 -------------------------------------------|
 -------------------------------------------|
 -------------------------------------------|
 -------------------------------------------|
 -------------------------------------------|
 --0--15-0-15-15-0-15-0-15-15-0-15-15-15-15-|
 |--3--| |--3--| |--3--| |--3--|

[E] [E] [E] [E] [E] [E] [E] [E] [E] [E] [E] [E]  
 
 --------------------------------------||
 --------------------------------------||
 --------------------------------------||
 --------------------------------------||
 --8-----8-----8-----8-----8-----8-----||
 --6-----6-----6-----6-----6-----6-----||

Duration Legend
 
 ---------------

W - whole
H - half
Q - quarter
E - 8th
S - 16th
T - 32nd
X - 64th
. - note dotted
|-n-| - n-tuplets
Tablature Legend
 
 ----------------

L - tied note
x - dead note
g - grace note
(n) - ghost note
> - accentuded note
NH - natural harmonic
AH - artificial harmonic
TH - tapped harmonic
SH - semi harmonic
PH - pitch harmonic
h - hammer on
p - pull off
b - bend
br - bendRelease
pb - preBend
pbr - preBendRelease
brb - bendReleaseBend
\n/ - tremolo bar dip
\n - tremolo bar dive
-/n - tremolo bar Release up
/n\ - tremolo bar inverted dip
/n - tremolo bar return
-\n - tremolo bar Release down
S - shift slide
s - legato slide
/ - slide into from below or out of upwards
\ - slide into from above or out of downwards
~ - vibrato
W - wide vibrato
tr - tril'
TP - tremolo picking
T - tapping
S - slap
P - pop
< - fade in
^ - brush up
v - brush down

Important: The song above is NOT stored on the Chordie server. The original song is hosted at www.guitaretab.com. Chordie works as a search engine and provides on-the-fly formatting. Chordie does not index songs against artists'/composers' will. To remove this song please click here.

Text color:
Chord color:
Chord grids: 
Font size:    
Page size: 

E
Rate #1 of 1 versions

Login - add to songbook

SHARE PAGE  



You need to log in to post comments