Guitar Tabs, Chords and Lyrics
Major upgrade!! After one year development the new version of Chordie is now online! Please give feedback.


That Was Just Your Life  Metallica

x 7 [E5]9 9 x x 6 8 [Bb5]8 x x x 5 7 [A5]7 x x x 3 5 [G5]5 x x x
F5 E5open C5/G D5/A
1 3 3 x x x 0 2 2 x x x 3 3 5 5 x x 5 5 7 7 x x
Gtr I (E A D G B E) - 'Solo (w/ Wah)'
Gtr II (E A D G B E) - 'Rhythm'
Solo
Q=188
[E5] [Bb5] 
[4/4] Gtr II
[E]| [E]| [E]| [E]| [E]| [E]| [E]| [E]|
[/] [/] [/] [/] [/] [/] [/] [/] 
Gtr I
S S S S S S S S S S S S S S S S
 
 |-------------------------------------------------|
 |-17-15----15-17-15----15-17-15----15-17-15----15-|
 |-------16----------16----------16----------16----|
 |-------------------------------------------------|
 |-------------------------------------------------|
 |-------------------------------------------------|

[A5] [G5] 
[E]| [E]| [E]| [E]| [E]| [E]| [E]| [E]|
[/] [/] [/] [/] [/] [/] [/] [/] 
S S S S S S S S S S S S S S S S
 
 |--------------------------------------------------|
 |-17-15----15-17-15----15-17-15----15-17-15----15--|
 |-------16----------16----------16----------16-----|
 |--------------------------------------------------|
 |--------------------------------------------------|
 |--------------------------------------------------|

[F5]  
[E]| [E]| [E]| [E]| [E]| [E]| [E]| [E]|
[/] [/] [/] [/] [/] [/] [/] [/] 
S S S S S S S S S S S S S S S S
 
 |-------------------------------------------------|
 |-17-15----15-17-15----15-17-15----15-17-15----15-|
 |-------16----------16----------16----------16----|
 |-------------------------------------------------|
 |-------------------------------------------------|
 |-------------------------------------------------|

E5open
[E]| [E]| [E]| [E]| [E]| [E]| [E]| [E]|
[/] [/] [/] [/] [/] [/] [/] [/]  
~~~~~~~~~~~~
Q. E +Q S S S S
 
 |--------------------------------------|
 |-17b19-----17b19==(17)r---17p15----15-|
 |--------------------------------16----|
 |--------------------------------------|
 |--------------------------------------|
 |--------------------------------------|

[E5] [Bb5] [A5] [G5] 
[E]| [E]| [E]| [E]| [E]| [E]| [E]| [E]| [E]| [E]| [E]| [E]| [E]| [E]| [E]| [E]|
[/] [/] [/] [/] [/] [/] [/] [/] [/] [/] [/] [/] [/] [/] [/] [/] 
 
 |----3-----| |----3-----|

E E +E E +E +E E E S S E E E E +E +E E E S S
 
 |------------17b19==(17)r(17)---------------|----------17b19==(17)r(17)---------------|
 |-17-15-(15)------------------15-17---15h17p|=15----15------------------15-17---15h17p|
 |-------------------------------------------|----16-----------------------------------|
 |-------------------------------------------|-----------------------------------------|
 |-------------------------------------------|-----------------------------------------|
 |-------------------------------------------|-----------------------------------------|

[F5] [C5/G]  
[E]| [E]| [E]| [E]| [E]| [E]| [E]| [E]| [E]| [E]| [E]| [E]| [E]| [E]| [E]| [E]|
[/] [/] [/] [/] [/] [/] [/] [/] [/] [/] [/] [/] [/] [/] [/] [/] 
~~
E E E E E E E E E E E E Q +Q
 
 |-------------------------|--------------------------|
 |-15----15----------------|--------------------------|
 |----16----16-14-13----13-|----12----12--------------|
 |-------------------14----|-13----13----12---(12)\---|
 |-------------------------|--------------------------|
 |-------------------------|--------------------------|

[E5] [Bb5] [A5] [G5] 
[E]| [E]| [E]| [E]| [E]| [E]| [E]| [E]| [E]| [E]| [E]| [E]| [E]| [E]| [E]| [E]|
[/] [/] [/] [/] [/] [/] [/] [/] [/] [/] [/] [/] [/] [/] [/] [/] 
S S S S S S S S S S S S S S S S S S S S S S S S S S S S S S S S
 
 |---------------------------------|----------------------------------|
 |---------------------------------|----------------------------------|

|-4p0h4p0h5p0h5p0h4p0h4p0h5p0h5p0h|=4p0h4p0h5p0h5p0h4p0h4p0h5p0h6p0h=|
 
 |---------------------------------|----------------------------------|
 |---------------------------------|----------------------------------|
 |---------------------------------|----------------------------------|

[F5] [D5/A] 
[E]| [E]| [E]| [E]| [E]| [E]| [E]| [E]| [E]| [E]| [E]| [E]| [E]| [E]| [E]| [E]|
[/] [/] [/] [/] [/] [/] [/] [/] [/] [/] [/] [/] [/] [/] [/] [/] 
S S S S S S S S S S E S S S T T E E +Q +Q Q
 
 |---------------------------------|---------------------|
 |---------------------------------|---------------------|
 |-7p0h7p0h5p0h5p0h4p0h4h5p4p0-0h5-|-7-------------------|
 |---------------------------------|---------------------|
 |---------------------------------|---5-(5)---(5)s==2---|
 |---------------------------------|---------------------|

[E5] [Bb5]  
[E]| [E]| [E]| [E]| [E]| [E]| [E]| [E]|
[/] [/] [/] [/] [/] [/] [/] [/]  
E E S S E E E S S E
 
 |-----------------------------------|
 |-----------------------------------|
 |-----12-14p12---------12-14p12-----|
 |-/14----------14\-/14----------14\-|
 |-----------------------------------|
 |-----------------------------------|

[A5] [G5] [F5] 
[E]| [E]| [E]| [E]| [E]| [E]| [E]| [E]| [E]| [E]| [E]| [E]| [E]| [E]| [E]| [E]|
[/] [/] [/] [/] [/] [/] [/] [/] [/] [/] [/] [/] [/] [/] [/] [/] 
E E S S E E E S S E Q Q Q Q
 
 |-----------------------------------|-----------------|
 |-----------------------------------|-----------------|
 |-----12-14p12---------12-14p12-----|-4---5---7---5---|
 |-/14----------14\-/14----------14\-|-5---5---7---5---|
 |-----------------------------------|-----------------|
 |-----------------------------------|-----------------|

E5open
E E Q H W
|
[/] Fade into Verse 3
\6____________________/
W +Q a +E E H
 
 |---------------|---------------------*|
 |---------------|---------------------*|
 |-2-------------|-(2)--(2)-(2)--------*|
 |-2-------------|-(2)--(2)-(2)--------*|
 |---------------|---------------------*|
 |---------------|---------------------*|

Duration Legend
 
 ---------------
 W - whole; H - half; Q - quarter; E - 8th; S - 16th; T - 32nd; X - 64th; a - acciaccatura

+ - note tied to previous; . - note dotted; .. - note double dotted
Uncapitalized letters represent notes that are staccato (1/2 duration)
Irregular groupings are notated above the duration line
Duration letters will always appear directly above the note/fret number it represents the
duration for. Duration letters with no fret number below them represent rests. Multi-
bar rests are notated in the form Wxn, where n is the number of bars to rest for. Low
melody durations appear below the staff
Tablature Legend
 
 ----------------

h - hammer-on
p - pull-off
b - bend
pb - pre-bend
r - bend release (if no number after the r, then release immediately)
/\ - slide into or out of (from/to "nowhere")
s - legato slide
S - shift slide
- natural harmonic
(n) - artificial harmonic
n(n) - tapped harmonic
~ - vibrato
tr - trill
T - tap
TP - trem. picking
PM - palm muting
\n/ - tremolo bar dip; n = amount to dip
\n - tremolo bar down
n/ - tremolo bar up
/n\ - tremolo bar inverted dip
= - hold bend; also acts as connecting device for hammers/pulls
- volume swell (louder/softer)
x - on rhythm slash represents muted slash
o - on rhythm slash represents single note slash
Misc Legend
 
 -----------

| - bar
|| - double bar
||o - repeat start
o|| - repeat end
*| - double bar (ending)
: - bar (freetime)
$ - Segno
& - Coda
Tempo markers - = BPM(8/16=s8/s16), where s8 = swing 8ths, s16 = swing 16ths

Important: The song above is NOT stored on the Chordie server. The original song is hosted at www.guitaretab.com. Chordie works as a search engine and provides on-the-fly formatting. Chordie does not index songs against artists'/composers' will. To remove this song please click here.

Text color:
Chord color:
Chord grids: 
Font size:    
Page size: 

A5 Bb5 C5/G D5/A E E5 F5 G5
Rate #2 of 4 versions

Login - add to songbook

SHARE PAGE  



You need to log in to post comments