Guitar Tabs, Chords and Lyrics
Server problems seems to be fixed. Chordie has been experiencing problems with songs disappearing. These issues now seems to be fixed, but still verifying the fix. If you find anything strange, please email admin@chordie.com.


Escape  Metallica

Acoustic version by sinForge xJp
Standard Tuning
*I made this for solo acoustic guitar. There aren't any live or
studio recordings of "Escape" as I have tabbed it here. Enjoy!!
 
 e|----------------------------------------------------------------|-
 B|-1-----------1p0---1-0h1p0-------------------1p0---1-0h1p0------|-
 G|-2-----------2p0---2-0h2p0-2-0---2-----------2p0---2-0h2p0-2-0--|-
 D|---------------------------3-2---2-------------------------3-2--|-
 A|---0-0-0-0-0-----------------------0-0-0-0-0--------------------|-
 E|----------------------------------------------------------------|- x2

Am.. G.. F Em Am.. G.. F Em
 
 e|------------------|- e|-------------------------------------|-
 B|---------------1--|- B|---------------0---------------------|-
 G|---------------2--|- G|---------------0---------------------|-
 D|------------------|- D|-------------------------------------|-
 A|-0-0-0-0-0-0-0----|- A|-0-0-0-0-0-0-0---0-0-0-0-------------|-
 E|------------------|- x4 E|--------------------------/11-9-7-9--|- x2

Am.. Am/G.. NC
[F#m]Feel no pain, but my life ain't easy.[G]. [F#m]I know I'm my best friend..[G]
[F#m]No one cares, but I'm so much stronger.[G]. [F#m]I'll fight until the end.[F#5].[G5] [E5] [F5]
[F#m]To escape from the true false world.[G]. [F#m]Undamaged destiny.[G].
[F#m]Can't get caught in the endless circle.[G]. [F#m]Ring of stupidity.[F#5].[G5] [E5] [F5]
[A]Out for my own, out to be [G]free.[F#m].
[A]One with my mind, they just can't [G]see.[F#m].
[A]No need to hear things that they [G]say.[F#m].
[A]Life's for my own to live my own [G]way.[F#m].
 
 e|-------------------------------------------------------------------------|-
 B|---------------0-----------------------------------0---------------------|-
 G|---------------0-----------------------------------0---------------------|-
 D|-------------------------------------------------------------------------|-
 A|-0-0-0-0-0-0-0---0-0-0-0-------------0-0-0-0-0-0-0---0-0-0-0-------------|-
 E|--------------------------/11-9-7-9---------------------------/11-9-7-9--|-

Am/G.. NC Am/G.. NC
[F#m]Rape my mind and destroy my feelings.[G]. [F#m]Don't tell me what to do.[G].
[F#m]I don't care now, 'cause I'm on my side.[G]. [F#m]And I can see through you.[F#5].[G5] [E5] [F5]
[F#m]Feed my brain with your so called standards.[G]. [F#m]Who says that I ain't right.[G].
[F#m]Break away from your common fashion.[G]. [F#m]See through your blurry sight.[F#5].[G5] [E5] [F5]
[A]Out for my own, out to be [G]free.[F#m].
[A]One with my mind, they just can't [G]see.[F#m].
[A]No need to hear things that they [G]say.[F#m].
[A]Life's for my own to live my own [G]way.[F#m].
[F#(m)] [B5] [A5] [F#(m)] [A5] [G5] [F#(m)] [B5] [A5] [F#(m)] [A5] [G5]  
 
 e|---------------------------------------------------------|-
 B|---------------------------------------------------------|-
 G|--------4--2----------2--0-----------4--2----------2--0--|-
 D|-----4--4--2-------4--2--0-------4---4--2-------4--2--0--|-
 A|---4----2--0-----4----0--x-----4-----2--0-----4----0--x--|- x2 w/o
 E|-2-------------2---------3---2--------------2---------3--|- lyrics 

See them try to bring the hammer down..
No damn chains can hold me to the ground..
 
 e|--------------------------------------------------------|-
 B|--------------------------------------------------------|-
 G|--------4--2----------2--0---------2--------------------|-
 D|-----4--4--2-------4--2--0-------4----------------------|-
 A|---4----2--0-----4----0--x-----4-------3-3-3-3-3-3-3-3--|-
 E|-2-------------2---------3---2---------1-1-1-1-1-1-1-1--|-

[F#(m)] [B5] [A5] [F#(m)] [A5] [G5] [F#m] [F5] 
Em.. .. .. Bb.. Em.. .. .. Bb..
Em.. .. .. Bb.. Em.. .. .. Bb..
 
 e|-----------------------------------------------------|-
 B|---------2-----------0--0----------2-----------0--0--|-
 G|---------2-----------0--0----------2-----------0--0--|-
 D|---------4-----------0--0----------4-----------0--0--|-
 A|---------4-----------x--x----------4-----------x--x--|-
 E|-0-2-2-0-2---0-2-2-0-3--3--0-2-2-0-2---0-2-2-0-3--3--|- x2

[F#m] [G] [F#m] [G] 
Em.. .. .. Bb.. Em.. .. .. Bb..
Em.. .. .. Bb.. Em.. .. .. Bb..
[Em]..Life's for my own to [Bb]live my own [Em]way.[Bb].
[Em]..Life's for my own to [Bb]live my own [Em]way.[Bb].
[Em]..Life's for my own to [Bb]live my own [Em]way.[Bb].
[Em]..Life's for my own to [Bb]live my own [Em]way.[Bb].

Important: The song above is NOT stored on the Chordie server. The original song is hosted at www.guitaretab.com. Chordie works as a search engine and provides on-the-fly formatting. Chordie does not index songs against artists'/composers' will. To remove this song please click here.

Text color:
Chord color:
Chord grids: 
Font size:    
Page size: 

A A5 B5 Bb E5 Em F#5 F#m F5 G G5
Rate #1 of 10 versions

Jango Player

Login - add to songbook

SHARE PAGE  




You need to log in to post comments