Guitar Tabs, Chords and Lyrics
Major upgrade!! After one year development the new version of Chordie is now online! Please give feedback.


Purify  Metallica

Band- Metallica
Song- Purify
[A5] 7 7 x x x x [Ab5] 6 6 x x x x [G5] 5 5 x x x x [Eb5] 1 1 x x x x
2 2 [E5]x x x x 3 3 [F5]x x x x
Gtr I (C G C F A D) - 'Gtr.1'
Gtr II (C G C F A D) - 'Gtr.2'
Intro
Fast Rock Q=216
[D5] [F5] [G5] [D5] [F5] 
[4/4] Gtr I Gtrs I, II
PM| PM PM PM PM| PM PM
E E E E E E E E +E E E E E E Q 4x E E E E E E E E
 
 ||------------------|-------------------||-||------------------|
 ||o-----------------|------------------o||-||o-----------------|
 ||------------------|-------------------||-||------------------|
 ||------------------|-------------------||-||------------------|
 ||o-----3---3-3---3-|-(3)-3---3h5-5-0--o||-||o-----3---3-3---3-|
 ||--0-0-3-0-3-3-0-3-|-(3)-3-0-3h5-5-0---||-||--0-0-3-0-3-3-0-3-|

[G5] [D5]  
 
 PM PM-------------------------|

+E E E E E E Q 4x E E Q E E Q E E Q E E Q 4x
 
 |-------------------||-||----------------|-----------------||
 |------------------o||-||o---------------|----------------o||
 |-------------------||-||----------------|-----------------||
 |-------------------||-||----------------|-----------------||
 |-(3)-3---3h5-5-0--o||-||o-0-0----0-0----|-0-0----0-0-----o||
 |-(3)-3-0-3h5-5-0---||-||--0-0----0-0----|-0-0----0-0------||

$
G5 G#5 A5 D5 N.C. G5 G#5 A5 D5 N.C.
[2/4] [4/4] [2/4]  
 
 PM----| PM----|

E E E E Q Q W E E E E Q Q W
 
 |---------------|------|---------------|------|
 |---------------|------|---------------|------|
 |---------------|------|---------------|------|
 |---------------|------|---------------|------|
 |-5-5-6-6-7--0--|------|-5-5-6-6-7--0--|------|
 |-5-5-6-6-7--0--|------|-5-5-6-6-7--0--|------|

G5 G#5 A5 D5 N.C. G5 G#5 A5 D5 N.C.
[4/4] [2/4] [4/4] [2/4]  
 
 PM----| PM----|

E E E E Q Q W E E E E Q Q W
 
 |---------------|------|---------------|------||
 |---------------|------|---------------|------||
 |---------------|------|---------------|------||
 |---------------|------|---------------|------||
 |-5-5-6-6-7--0--|------|-5-5-6-6-7--0--|------||
 |-5-5-6-6-7--0--|------|-5-5-6-6-7--0--|------||

Verse
G5 G#5 A5 D5 N.C. G5 G#5 A5 D5 N.C.
[4/4] [2/4] [4/4] [2/4]  
 
 PM----| PM----|

E E E E Q Q W E E E E Q Q W 4x
 
 ||----------------|------|---------------|-------||
 ||o---------------|------|---------------|------o||
 ||----------------|------|---------------|-------||
 ||----------------|------|---------------|-------||
 ||o-5-5-6-6-7--0--|------|-5-5-6-6-7--0--|------o||
 ||--5-5-6-6-7--0--|------|-5-5-6-6-7--0--|-------||

Chorus
$$
A5 Ab5
Gtrs I, II
Q Q Q Q Q Q Q Q Q Q Q Q Q Q Q Q
| | | | | | | | | | | | | | | |
/ / / / / / / / / / / / / / / /
W W W W
|-------------|-------------|-------------|--------------|
|-------------|-------------|-------------|--------------|
|-------------|-------------|-------------|--------------|
|-------------|-------------|-------------|--------------|
|-------------|-------------|-------------|--------------|
|-------------|-------------|-------------|--------------|
Q Q Q Q Q Q Q Q Q Q Q Q Q Q Q Q
| | | | | | | | | | | | | | | |
/ / / / / / / / / / / / / / / /
W W W W
|-------------|-------------|-------------|-------------|
|-------------|-------------|-------------|-------------|
|-------------|-------------|-------------|-------------|
|-------------|-------------|-------------|-------------|
|-------------|-------------|-------------|-------------|
|-------------|-------------|-------------|-------------|
E E Q H E E Q H E E Q H E E Q H
| | | | | | | | | | | |
/ / / / / / / / / / / /
W W W W
|-------------|-------------|-------------|-------------|
|-------------|-------------|-------------|-------------|
|-------------|-------------|-------------|-------------|
|-------------|-------------|-------------|-------------|
|-------------|-------------|-------------|-------------|
|-------------|-------------|-------------|-------------|
Q Q Q Q Q Q Q Q Q Q Q Q Q Q Q Q
| | | | | | | | | | | | | | | |
/ / / / / / / / / / / / / / / /
W W W W
|-------------|-------------|-------------|-------------|
|-------------|-------------|-------------|-------------|
|-------------|-------------|-------------|-------------|
|-------------|-------------|-------------|-------------|
|-------------|-------------|-------------|-------------|
|-------------|-------------|-------------|-------------|
Q Q Q Q Q Q Q Q Q Q Q Q Q Q Q Q
| | | | | | | | | | | | | | | |
/ / / / / / / / / / / / / / / /
W W W W
|-------------|-------------|-------------|-------------|
|-------------|-------------|-------------|-------------|
|-------------|-------------|-------------|-------------|
|-------------|-------------|-------------|-------------|
|-------------|-------------|-------------|-------------|
|-------------|-------------|-------------|-------------|
E E Q H E E Q H E E Q H E E Q H
| | | | | | | | | | | |
/ / / / / / / / / / / /
W W W W
|-------------|-------------|-------------|-------------|
|-------------|-------------|-------------|-------------|
|-------------|-------------|-------------|-------------|
|-------------|-------------|-------------|-------------|
|-------------|-------------|-------------|-------------|
|-------------|-------------|-------------|-------------|
To Dbl. Coda
E E Q H E E Q H E E Q H E E Q H
| | | | | | | | | | | |
/ / / / / / / / / / / /
W W W W
|-------------|-------------|-------------|-------------||
|-------------|-------------|-------------|-------------||
|-------------|-------------|-------------|-------------||
|-------------|-------------|-------------|-------------||
|-------------|-------------|-------------|-------------||
|-------------|-------------|-------------|-------------||
Interlude
To Coda
Gtrs I, II
PM| PM PM PM PM| PM PM PM
E E E E E E E E +E E E E E E Q E E E E E E E E +E E E E E E Q
|-----------------|------------------|-----------------|------------------|
|-----------------|------------------|-----------------|------------------|
|-----------------|------------------|-----------------|------------------|
|-----------------|------------------|-----------------|------------------|
|-----3---3-3---3-|-(3)-3---3h5-5-0--|-----3---3-3---3-|-(3)-3---3h5-5-0--|
|-0-0-3-0-3-3-0-3-|-(3)-3-0-3h5-5-0--|-0-0-3-0-3-3-0-3-|-(3)-3-0-3h5-5-0--|
Gtr I Gtrs I, II
PM| PM PM PM PM| PM PM PM
E E E E E E E E +E E E E E E Q E E E E E E E E +E E E E E E Q 3x
|-----------------|------------------||------------------|-------------------||
|-----------------|------------------||o-----------------|------------------o||
|-----------------|------------------||------------------|-------------------||
|-----------------|------------------||------------------|-------------------||
|-----3---3-3---3-|-(3)-3---3h5-5-0--||o-----3---3-3---3-|-(3)-3---3h5-5-0--o||
|-0-0-3-0-3-3-0-3-|-(3)-3-0-3h5-5-0--||--0-0-3-0-3-3-0-3-|-(3)-3-0-3h5-5-0---||
D.S. al Coda &
Gtr I
PM| PM PM PM PM| PM PM PM
E E E E E E E E +E E E E E E Q E E E E E E E E +E E E E E E Q
|-----------------|------------------||-----------------|------------------||
|-----------------|------------------||-----------------|------------------||
|-----------------|------------------||-----------------|------------------||
|-----------------|------------------||-----------------|------------------||
|-----3---3-3---3-|-(3)-3---3h5-5-0--||-----3---3-3---3-|-(3)-3---3h5-5-0--||
|-0-0-3-0-3-3-0-3-|-(3)-3-0-3h5-5-0--||-0-0-3-0-3-3-0-3-|-(3)-3-0-3h5-5-0--||
Gtrs I, II
PM---------------------------------------------------------|
E E Q E E Q E E Q E E Q E E Q E E Q E E Q E E Q
||----------------|---------------|---------------|-----------------||
||o---------------|---------------|---------------|----------------o||
||----------------|---------------|---------------|-----------------||
||----------------|---------------|---------------|-----------------||
||o-0-0----0-0----|-0-0----0-0----|-0-0----0-0----|-0-0----0-0-----o||
||--0-0----0-0----|-0-0----0-0----|-0-0----0-0----|-0-0----0-0------||
N.C.
PM------------------------------------------------|
|-----------------|-----------------|-----------------|-----------------||
|-----------------|-----------------|-----------------|-----------------||
|-----------------|-----------------|-----------------|-----------------||
|-----------------|-----------------|-----------------|-----------------||
|-----------------|-----------------|---------3-3-0-3-|-0-0-3-0-3-3-0-3-||
|-0-0-3-0-3-3-0-3-|-0-0-3-0-3-3-0-3-|-0-0-3-0-3-3-0-3-|-0-0-3-0-3-3-0-3-||
N.C.
Gtr I
PM| ~~~
E E E E E E E E E E E E E Q.
||------------------------|----------------------|
||o-----------------------|----------------------|
||------------------------|----------------------|
||------------------------|----------------------|
||o-----12p10-12-12p10-12-|-12p10-12p10-12s15----|
||--0-0--0-----0--0-----0-|--0-------------------|
|
| Gtr II
| PM| ~~~
| E E E E E E E E E E E E E Q.
||------------------------|----------------------|
||o-----------------------|----------------------|
||------------------------|----------------------|
||------------------------|----------------------|
||o------5p=3--5--5p=3--5-|--5p=3--5p=3--5s=8----|
||--0-0-------------------|----------------------|
PM| ~~~
E E E E E E E E E E E E E Q.
|-----------------------|------------------------||
|-----------------------|-----------------------o||
|-----------------------|------------------------||
|-----------------------|------------------------||
|-----12p10-12-12p10-12-|-12p10-12p10-12s15-----o||
|-0-0--0-----0--0-----0-|--0---------------------||
|
| PM| ~~~
| E E E E E E E E E E E E E Q.
|-----------------------|------------------------||
|-----------------------|-----------------------o||
|-----------------------|------------------------||
|-----------------------|------------------------||
|------5p=3--5--5p=3--5-|--5p=3--5p=3--5s=8-----o||
|-0-0-------------------|------------------------||
Bridge
A Fsus2 G5 D5 N.C.
PM ~~~
Q Q E Q. Q. E +E E Q Q Q E Q. E E E E E Q.
|--------------|-----------------|--------------|----------------------|
|----2---------|-----------------|--------------|----------------------|
|----2---------|------5-(5)------|--------------|----------------------|
|-2-----2-2----|------5-(5)------|--------------|----------------------|
|-0-----0-0----|-3----------3-3--|-5--0----0----|-12p10-12p10-12s15----|
|--------------|-3----------3-3--|-5--0--0-0----|--0-------------------|
|
| PM ~~~
| Q Q E Q. Q. E +E E Q Q Q E Q. E E E E E Q.
|--------------|-----------------|--------------|----------------------|
|----2---------|-----------------|--------------|----------------------|
|----2---------|------5-(5)------|--------------|----------------------|
|-2-----2-2----|------5-(5)------|--------------|----------------------|
|-0-----0-0----|-3----------3-3--|-5--0----0----|--5p=3--5p=3--5s=8----|
|--------------|-3----------3-3--|-5--0--0-0----|----------------------|
A Fsus2 G5 D5 N.C.
PM ~~~
Q Q E Q. Q. E +E E Q Q Q E Q. E E E E E Q.
|--------------|-----------------|--------------|----------------------||
|----2---------|-----------------|--------------|----------------------||
|----2---------|------5-(5)------|--------------|----------------------||
|-2-----2-2----|------5-(5)------|--------------|----------------------||
|-0-----0-0----|-3----------3-3--|-5--0----0----|-12p10-12p10-12s15----||
|--------------|-3----------3-3--|-5--0--0-0----|--0-------------------||
|
| PM ~~~
| Q Q E Q. Q. E +E E Q Q Q E Q. E E E E E Q.
|--------------|-----------------|--------------|----------------------||
|----2---------|-----------------|--------------|----------------------||
|----2---------|------5-(5)------|--------------|----------------------||
|-2-----2-2----|------5-(5)------|--------------|----------------------||
|-0-----0-0----|-3----------3-3--|-5--0----0----|--5p=3--5p=3--5s=8----||
|--------------|-3----------3-3--|-5--0--0-0----|----------------------||
Gtrs I, II
E E E E E E Q E E E E +E E Q E E E E E E Q E E E E +E E Q
||-----------------|------------------|----------------|--------------------||
||o----------------|------------------|----------------|-------------------o||
||-----------------|------------------|----------------|--------------------||
||-----------------|------------------|----------------|--------------------||
||o---3-----3h5-0--|---3---3-(3)-5-0--|---3-----3h5-0--|---3---3-(3)-5-0---o||
||----3---0-3h5-0--|---3---3-(3)-5-0--|---3---0-3h5-0--|---3---3-(3)-5-0----||
A Fsus2 G5 D5 N.C.
Gtr I
PM ~~~
Q Q E Q. Q. E +E E Q Q Q E Q. E E E E E Q.
||---------------|-----------------|--------------|------------------------||
||o----2---------|-----------------|--------------|-----------------------o||
||-----2---------|------5-(5)------|--------------|------------------------||
||--2-----2-2----|------5-(5)------|--------------|------------------------||
||o-0-----0-0----|-3----------3-3--|-5--0----0----|-12p10-12p10-12s15-----o||
||---------------|-3----------3-3--|-5--0--0-0----|--0---------------------||
|
| Gtr II
| PM ~~~
| Q Q E Q. Q. E +E E Q Q Q E Q. E E E E E Q.
||---------------|-----------------|--------------|------------------------||
||o----2---------|-----------------|--------------|-----------------------o||
||-----2---------|------5-(5)------|--------------|------------------------||
||--2-----2-2----|------5-(5)------|--------------|------------------------||
||o-0-----0-0----|-3----------3-3--|-5--0----0----|--5p=3--5p=3--5s=8-----o||
||---------------|-3----------3-3--|-5--0--0-0----|------------------------||
Gtrs I, II
E E E E E E Q E E E E +E E Q E E E E E E Q E E E E +E E Q 5x
||-----------------|------------------|----------------|--------------------||
||o----------------|------------------|----------------|-------------------o||
||-----------------|------------------|----------------|--------------------||
||-----------------|------------------|----------------|--------------------||
||o---3-----3h5-0--|---3---3-(3)-5-0--|---3-----3h5-0--|---3---3-(3)-5-0---o||
||----3---0-3h5-0--|---3---3-(3)-5-0--|---3---0-3h5-0--|---3---3-(3)-5-0----||
N.C.
Gtr I
PM| ~~~
E E E E E E E E E E E E E Q.
||------------------------|----------------------|
||o-----------------------|----------------------|
||------------------------|----------------------|
||------------------------|----------------------|
||o-----12p10-12-12p10-12-|-12p10-12p10-12s15----|
||--0-0--0-----0--0-----0-|--0-------------------|
|
| Gtr II
| PM| ~~~
| E E E E E E E E E E E E E Q.
||------------------------|----------------------|
||o-----------------------|----------------------|
||------------------------|----------------------|
||------------------------|----------------------|
||o------5p=3--5--5p=3--5-|--5p=3--5p=3--5s=8----|
||--0-0-------------------|----------------------|
PM| ~~~
E E E E E E E E E E E E E Q.
|-----------------------|------------------------||
|-----------------------|-----------------------o||
|-----------------------|------------------------||
|-----------------------|------------------------||
|-----12p10-12-12p10-12-|-12p10-12p10-12s15-----o||
|-0-0--0-----0--0-----0-|--0---------------------||
|
| PM| ~~~
| E E E E E E E E E E E E E Q.
|-----------------------|------------------------||
|-----------------------|-----------------------o||
|-----------------------|------------------------||
|-----------------------|------------------------||
|------5p=3--5--5p=3--5-|--5p=3--5p=3--5s=8-----o||
|-0-0-------------------|------------------------||
D.S.S. al Dbl. Coda
Gtrs I, II
PM------------------------------------------------|
|-----------------|-----------------|-----------------|-----------------||
|-----------------|-----------------|-----------------|-----------------||
|-----------------|-----------------|-----------------|-----------------||
|-----------------|-----------------|-----------------|-----------------||
|-----------------|-----------------|---------3-3-0-3-|-0-0-3-0-3-3-0-3-||
|-0-0-3-0-3-3-0-3-|-0-0-3-0-3-3-0-3-|-0-0-3-0-3-3-0-3-|-0-0-3-0-3-3-0-3-||
&&
Gtrs I, II
E E Q H E E Q H W W
| | | | | |
/ / / / / /
Gtrs I, II
PM| PM PM PM
W W E E E E E E E E +E E E E E E Q
|-------------|-------------||------------------|-------------------||
|-------------|-------------||o-----------------|------------------o||
|-------------|-------------||------------------|-------------------||
|-------------|-------------||------------------|-------------------||
|-------------|-------------||o-----3---3-3---3-|-(3)-3---3h5-5-0--o||
|-------------|-------------||--0-0-3-0-3-3-0-3-|-(3)-3-0-3h5-5-0---||
Outro
Moderately Q=132
Gtr II
W +W +W
| | |
/ / /
Gtr I
~ PM--| ~ PM--|
W S S E Q E E E E S S E Q E E E E
|----------||-------------------|-------------------|
|----------||-------------------|-------------------|
|----------||-------------------|-------------------|
|----------||-------------------|-------------------|
|----------||--------3--5-------|--------3--5-------|
|----------||--0h3h5------0-0-0-|--0h3h5------0-0-0-|
N.C. C5 D5 N.C. C5 D5
W W
Gtrs I, II
~ PM--| ~ PM--|
S S E Q E E E E S S E Q E E E E
|------------------|--------------------|
|------------------|--------------------|
|------------------|--------------------|
|------------------|--------------------|
|-------3--5-------|-------3--5---------|
|-0h3h5------0-0-0-|-0h3h5------0-0-0---|
F5/C D5 F5/C D5 N.C. C5 D5 N.C. C5 D5
PM--| PM--| ~ PM--| ~ PM--|
E E Q E E E E E E Q E E E E S S E Q E E E E S S E Q E E E E
|----------------|----------------||-------------------|------------------|
|----------------|----------------||o------------------|------------------|
|----------------|----------------||-------------------|------------------|
|-3-3-3----------|-3-3-3----------||-------------------|------------------|
|-3-3-3--5-------|-3-3-3--5-------||o-------3--5-------|-------3--5-------|
|----------0-0-0-|----------0-0-0-||--0h3h5------0-0-0-|-0h3h5------0-0-0-|
N.C. C5 D5 N.C. C5 D5
~ PM--| ~ PM--|
S S E Q E E E E S S E Q E E E E
|------------------|------------------|
|------------------|------------------|
|------------------|------------------|
|------------------|------------------|
|-------3--5-------|-------3--5-------|
|-0h3h5------0-0-0-|-0h3h5------0-0-0-|
1. 2.
PM--| PM--| PM
E E Q E E E E E E Q E E E E E E Q E E Q
|----------------|-----------------||----------------*|
|----------------|----------------o||----------------*|
|----------------|-----------------||----------------*|
|-3-3-3----------|-3-3-3-----------||--3-3-3---------*|
|-3-3-3--5-------|-3-3-3--5-------o||--3-3-3--5------*|
|----------0-0-0-|----------0-0-0--||-----------0----*|
Duration Legend
---------------
W - whole; H - half; Q - quarter; E - 8th; S - 16th; T - 32nd; X - 64th; a - acciaccatura
+ - note tied to previous; . - note dotted; .. - note double dotted
Uncapitalized letters represent notes that are staccato (1/2 duration)
Irregular groupings are notated above the duration line
Duration letters will always appear directly above the note/fret number it represents the
duration for. Duration letters with no fret number below them represent rests. Multi-
bar rests are notated in the form Wxn, where n is the number of bars to rest for. Low
melody durations appear below the staff
Tablature Legend
----------------
h - hammer-on
p - pull-off
b - bend
pb - pre-bend
r - bend release (if no number after the r, then release immediately)
/\ - slide into or out of (from/to "nowhere")
s - legato slide
S - shift slide
- natural harmonic
[n] - artificial harmonic
n(n) - tapped harmonic
~ - vibrato
tr - trill
T - tap
TP - trem. picking
PM - palm muting
\n/ - tremolo bar dip; n = amount to dip
\n - tremolo bar down
n/ - tremolo bar up
/n\ - tremolo bar inverted dip
= - hold bend; also acts as connecting device for hammers/pulls
- volume swell (louder/softer)
x - on rhythm slash represents muted slash
o - on rhythm slash represents single note slash
Misc Legend
-----------
| - bar
|| - double bar
||o - repeat start
o|| - repeat end
*| - double bar (ending)
: - bar (freetime)
$ - Segno
& - Coda
Tempo markers - = BPM(8/16=s8/s16), where s8 = swing 8ths, s16 = swing 16ths
***************************************************************************************
* Generated using Power Tab Editor by Brad Larsen - http://powertab.guitarnetwork.org *
***************************************************************************************

Important: The song above is NOT stored on the Chordie server. The original song is hosted at www.guitaretab.com. Chordie works as a search engine and provides on-the-fly formatting. Chordie does not index songs against artists'/composers' will. To remove this song please click here.

Text color:
Chord color:
Chord grids: 
Font size:    
Page size: 

A5 Ab5 D5 E5 Eb5 F5 G5
Rate #1 of 1 versions

Jango Player

Login - add to songbook

SHARE PAGE  




You need to log in to post comments