Guitar Tabs, Chords and Lyrics
Server problems seems to be fixed. Chordie has been experiencing problems with songs disappearing. These issues now seems to be fixed, but still verifying the fix. If you find anything strange, please email admin@chordie.com.


Shoot Me Again  Metallica

Band- Metallica
Song- Shoot Me Again
[D5] 0 0 0 x x x [Eb5] 1 1 1 x x x [F5] 3 3 3 x x x
Gtr I (C G C F A D) - 'Kirk or James'
Gtr II (C G C F A D) - 'James or Kirk'
Gtr III (C G C F A D) - 'Used for the Delay Effect'
Gtr IV (E A D G B E) - 'Used for the Verse variations'
Intro
Q=112
[4/4] Gtr I
W W
 
 |---------------------------------|---------------------------------|
 |---------------------------------|---------------------------------|
 |---------------------------------|---------------------------------|
 |---------------------------------|---------------------------------|
 |---------------------------------|---------------------------------|
 |---------------------------------|---------------------------------|

|
| Gtr II
| S S S S S S S S S S S S S S S S S S S S S S S S S S S S S S S S
 
 |---------------------------------|---------------------------------|
 |---------------------------------|---------------------------------|
 |-x-x-x-x-x-x-x-x-x-x-x-x-x-x-x-x-|-x-x-x-x-x-x-x-x-x-x-x-x-x-x-x-x-|
 |-x-x-x-x-x-x-x-x-x-x-x-x-x-x-x-x-|-x-x-x-x-x-x-x-x-x-x-x-x-x-x-x-x-|
 |-x-x-x-x-x-x-x-x-x-x-x-x-x-x-x-x-|-x-x-x-x-x-x-x-x-x-x-x-x-x-x-x-x-|
 |---------------------------------|---------------------------------|

W W
 
 |---------------------------------|----------------------------------|
 |---------------------------------|----------------------------------|
 |---------------------------------|----------------------------------|
 |---------------------------------|----------------------------------|
 |---------------------------------|----------------------------------|
 |---------------------------------|----------------------------------|

|
| S S S S S S S S S S S S S S S S S S S S S S S S S S S S S S S S
 
 |---------------------------------|----------------------------------|
 |---------------------------------|----------------------------------|
 |-x-x-x-x-x-x-x-x-x-x-x-x-x-x-x-x-|-x-x-x-x-x-x-x-x-x-x-x-x-x-x-x-x--|
 |-x-x-x-x-x-x-x-x-x-x-x-x-x-x-x-x-|-x-x-x-x-x-x-x-x-x-x-x-x-x-x-x-x--|
 |-x-x-x-x-x-x-x-x-x-x-x-x-x-x-x-x-|-x-x-x-x-x-x-x-x-x-x-x-x-x-x-x-x--|
 |---------------------------------|----------------------------------|

[D5]S S S S S S S S S S S S S S S S
 
 ||----------------------------------|
 ||o---------------------------------|
 ||----------------------------------|
 ||----------------------------------|
 ||o-4h5h6---4h5h6---4h5h6---4h5h6---|
 ||--0-------0-------0-------0-------|

|
| S S S S S S S S S S S S S S S S
 
 ||----------------------------------|
 ||o---------------------------------|
 ||--x-x-x-x-x-x-x-x-x-x-x-x-x-x-x-x-|
 ||--x-x-x-x-x-x-x-x-x-x-x-x-x-x-x-x-|
 ||o-x-x-x-x-x-x-x-x-x-x-x-x-x-x-x-x-|
 ||----------------------------------|

S S S S S S S S S S S S S S S S S S S S H.
 
 |----------------------------------||---------------|
 |---------------------------------o||---------------|
 |----------------------------------||---------------|
 |----------------------------------||---------------|
 |-4h5h6---4h5h6---4h5h6---4h5h6---o||-4h5h6---------|
 |-0-------0-------0-------0--------||-0-------------|

|
| S S S S S S S S S S S S S S S S S S S S H.
 
 |----------------------------------||---------------|
 |---------------------------------o||---------------|
 |-x-x-x-x-x-x-x-x-x-x-x-x-x-x-x-x--||-x-x-x---------|
 |-x-x-x-x-x-x-x-x-x-x-x-x-x-x-x-x--||-x-x-x---------|
 |-x-x-x-x-x-x-x-x-x-x-x-x-x-x-x-x-o||-x-x-x---------|
 |----------------------------------||---------------|

Bridge
Q=224
[D5]  
 
 PM----| PM----| PM|

S S S S E E E E S S S S E E E E S S S S E E
 
 ||--------------------------|---------------------|
 ||o-------------------------|---------------------|
 ||--------------------------|---------------------|
 ||--------------------------|---------------------|
 ||o-4h5h6-----------4h5h6---|---------4h5h6-------|
 ||--0-------0-0-0-0-0-------|-0-0-0-0-0-------0-0-|

|
| S S S S Q Q S S S S Q Q S S S S Q
 
 ||--------------------------|---------------------|
 ||o-------------------------|---------------------|
 ||--------------------------|---------------------|
 ||--------------------------|---------------------|
 ||o-4h5h6-----------4h5h6---|---------4h5h6-------|
 ||--0---------------0-------|---------0-----------|
 PM----| PM----| PM|

S S S S E E E E S S S S E E E E S S S S E E
 
 |-------------------------|------------------------||
 |-------------------------|-----------------------o||
 |-------------------------|------------------------||
 |-------------------------|------------------------||
 |-4h5h6-----------4h5h6---|---------4h5h6---------o||
 |-0-------0-0-0-0-0-------|-0-0-0-0-0-------0-0----||

|
| S S S S Q Q S S S S Q Q S S S S Q
 
 |-------------------------|------------------------||
 |-------------------------|-----------------------o||
 |-------------------------|------------------------||
 |-------------------------|------------------------||
 |-4h5h6-----------4h5h6---|---------4h5h6---------o||
 |-0---------------0-------|---------0--------------||

S S S S Q Q S S S S Q Q S S S S Q
 
 |-----------------------|------------------|
 |-----------------------|------------------|
 |-----------------------|------------------|
 |-----------------------|------------------|
 |-4h5h6---------4h5h6---|-------4h5h6------|
 |-0-------------0-------|-------0----------|

|
| S S S S Q Q S S S S Q Q S S S S Q
 
 |-----------------------|------------------|
 |-----------------------|------------------|
 |-----------------------|------------------|
 |-----------------------|------------------|
 |-4h5h6---------4h5h6---|-------4h5h6------|
 |-0-------------0-------|-------0----------|

S S S S Q Q S S S S Q Q S S S S Q
 
 |-----------------------|--------------------|
 |-----------------------|--------------------|
 |-----------------------|--------------------|
 |-----------------------|--------------------|
 |-4h5h6---------4h5h6---|-------4h5h6--------|
 |-0-------------0-------|-------0------------|

|
| S S S S Q Q S S S S Q Q S S S S Q
 
 |-----------------------|--------------------|
 |-----------------------|--------------------|
 |-----------------------|--------------------|
 |-----------------------|--------------------|
 |-4h5h6---------4h5h6---|-------4h5h6--------|
 |-0-------------0-------|-------0------------|
 PM----| PM----| PM|

S S S S E E E E S S S S E E E E S S S S E E
 
 ||--------------------------|---------------------|
 ||o-------------------------|---------------------|
 ||--------------------------|---------------------|
 ||--------------------------|---------------------|
 ||o-4h5h6-----------4h5h6---|---------4h5h6-------|
 ||--0-------0-0-0-0-0-------|-0-0-0-0-0-------0-0-|

|
| S S S S Q Q S S S S Q Q S S S S Q
 
 ||--------------------------|---------------------|
 ||o-------------------------|---------------------|
 ||--------------------------|---------------------|
 ||--------------------------|---------------------|
 ||o-4h5h6-----------4h5h6---|---------4h5h6-------|
 ||--0---------------0-------|---------0-----------|

1. 2.
 
 PM----| PM----| PM|

S S S S E E E E S S S S E E E E S S S S E E W
 
 |-------------------------|----------------------||-------|
 |-------------------------|---------------------o||-------|
 |-------------------------|----------------------||-------|
 |-------------------------|----------------------||-------|
 |-4h5h6-----------4h5h6---|---------4h5h6-------o||-------|
 |-0-------0-0-0-0-0-------|-0-0-0-0-0-------0-0--||-------|

|
| S S S S Q Q S S S S Q Q S S S S Q W
 
 |-------------------------|----------------------||-------|
 |-------------------------|---------------------o||-------|
 |-------------------------|----------------------||-------|
 |-------------------------|----------------------||-------|
 |-4h5h6-----------4h5h6---|---------4h5h6-------o||-------|
 |-0---------------0-------|---------0------------||-------|

Q=112
[D5]PM| ~ PM--| [Eb5] [D5]PM| ~ PM--|[Eb5]
e e S E s e e Q e e S E s e e Q
 
 |---------------------|---------------------|
 |---------------------|---------------------|
 |---------------------|---------------------|
 |---------------1-----|---------------1-----|
 |-0-0-6p5-0-0-0-1-----|-0-0-6p5-0-0-0-1-----|
 |-0-0-----0-0-0-1-----|-0-0-----0-0-0-1-----|

|
| ~ ~
| E E S E S E E E. S E E S E S E E E. S
 
 |---------------------|---------------------|
 |---------------------|---------------------|
 |---------------------|---------------------|
 |---------------1--!1-|---------------1--!1-|
 |-----6p5-------1--!1-|-----6p5-------1--!1-|
 |-0-0-----0-0-0-1--!1-|-0-0-----0-0-0-1--!1-|

[D5]PM| ~ PM--| [Eb5] [D5]PM| ~ PM--|[Eb5]
e e S E s e e Q e e S E s e e Q
 
 |---------------------|-----------------------|
 |---------------------|-----------------------|
 |---------------------|-----------------------|
 |---------------1-----|---------------1-------|
 |-0-0-6p5-0-0-0-1-----|-0-0-6p5-0-0-0-1-------|
 |-0-0-----0-0-0-1-----|-0-0-----0-0-0-1-------|

|
| ~ ~
| E E S E S E E E. S E E S E S E E E. S
 
 |---------------------|-----------------------|
 |---------------------|-----------------------|
 |---------------------|-----------------------|
 |---------------1--!1-|---------------1--!1---|
 |-----6p5-------1--!1-|-----6p5-------1--!1---|
 |-0-0-----0-0-0-1--!1-|-0-0-----0-0-0-1--!1---|

Pre-Verse I
Q=112
$
$$
PM| ~ PM--| PM| ~ PM--|
e e S E s e e Q e e S E s e e Q
|---------------------|---------------------|
|---------------------|---------------------|
|---------------------|---------------------|
|---------------1-----|---------------1-----|
|-0-0-6p5-0-0-0-1-----|-0-0-6p5-0-0-0-1-----|
|-0-0-----0-0-0-1-----|-0-0-----0-0-0-1-----|
|
| ~ ~
| E E S E S E E E. S E E S E S E E E. S
|---------------------|---------------------|
|---------------------|---------------------|
|---------------------|---------------------|
|---------------1--!1-|---------------1--!1-|
|-----6p5-------1--!1-|-----6p5-------1--!1-|
|-0-0-----0-0-0-1--!1-|-0-0-----0-0-0-1--!1-|
To Coda
PM| ~ PM--| PM| ~ PM--|
e e S E s e e Q e e S E s e e Q
|---------------------|-----------------------|
|---------------------|-----------------------|
|---------------------|-----------------------|
|---------------1-----|---------------1-------|
|-0-0-6p5-0-0-0-1-----|-0-0-6p5-0-0-0-1-------|
|-0-0-----0-0-0-1-----|-0-0-----0-0-0-1-------|
|
| ~ ~
| E E S E S E E E. S E E S E S E E E. S
|---------------------|-----------------------|
|---------------------|-----------------------|
|---------------------|-----------------------|
|---------------1--!1-|---------------1--!1---|
|-----6p5-------1--!1-|-----6p5-------1--!1---|
|-0-0-----0-0-0-1--!1-|-0-0-----0-0-0-1--!1---|
Verse 1 & 3
PM| PM-------| PM PM
E s s E E E E E e S S S S E e E E E e
|--------------------|------------------------|
|--------------------|------------------------|
|--------------------|------------------------|
|--------------------|------------------------|
|--------------------|------------------------|
|-0--0-0---0---0---0-|--0h1p0-----0---0---0---|
|
| < <
| W W
|--------------------|------------------------|
|--------------------|------------------------|
|-7------------------|-10---------------------|
|--------------------|------------------------|
|-5------------------|--8---------------------|
|--------------------|------------------------|
|
| Gtr IV
| PM PM PM PM|
| E. s E E E Q e S E S E e E E E s s
|--------------------|------------------------|
|--------------------|------------------------|
|--------------------|------------------------|
|--------------------|------------------------|
|--------------------|------------------------|
|-0----0---0---0---0-|--1p0-------0---0---0-0-|
PM--|
Q s s e E E +E +S S S S S S S S S S H
|----------------------------|----------------------|
|----------------------------|----------------------|
|----------------------------|----------------------|
|----------------------------|----------------------|
|----------------------------|-1-1-1-1-1-1-1--------|
|-1------1-1-1---1-(1)-(1)s5-|-1-1-1-1-1-1-1--------|
|
| <
| W S S S S S S S S H
|----------------------------|----------------------|
|----------------------------|----------------------|
|-8--------------------------|-8-8-8-8-8-8-8--------|
|----------------------------|----------------------|
|-6--------------------------|-6-6-6-6-6-6-6--------|
|----------------------------|----------------------|
|
| PM--|
| Q s s e E E +E +S S S S S S S S S S H
|----------------------------|----------------------|
|----------------------------|----------------------|
|----------------------------|----------------------|
|----------------------------|----------------------|
|----------------------------|-1-1-1-1-1-1-1--------|
|-1b1.5r=1-1-1---1-(1)-(1)s5-|-1-1-1-1-1-1-1--------|
PM| PM--------| PM PM|
E s s E E E E E e e. s s S e E E E s s
|---------------------|-----------------------|
|---------------------|-----------------------|
|---------------------|-----------------------|
|---------------------|-----------------------|
|---------------------|-----------------------|
|-0--0-0---0---0----0-|--0--0-0---0---0---0-0-|
|
| < <
| W W
|---------------------|-----------------------|
|---------------------|-----------------------|
|-7-------------------|-10--------------------|
|---------------------|-----------------------|
|-5-------------------|--8--------------------|
|---------------------|-----------------------|
|
| PM PM PM|
| E. s E E E Q. E. s E E E Q s s
|---------------------|-----------------------|
|---------------------|-----------------------|
|---------------------|-----------------------|
|---------------------|-----------------------|
|---------------------|-----------------------|
|-0----0---0---0------|--0--0-----0---0---0-0-|
PM--|
Q s s e E E +E +S S S S S S S S S S H
|---------------------------|----------------------|
|---------------------------|----------------------|
|---------------------------|----------------------|
|---------------------------|----------------------|
|---------------------------|-1-1-1-1-1-1-1--------|
|-1-----1-1-1---1-(1)-(1)s5-|-1-1-1-1-1-1-1--------|
|
| <
| W S S S S S S S S H
|---------------------------|----------------------|
|---------------------------|----------------------|
|-8-------------------------|-8-8-8-8-8-8-8--------|
|---------------------------|----------------------|
|-6-------------------------|-6-6-6-6-6-6-6--------|
|---------------------------|----------------------|
|
| PM PM
| E. s E e E E +E +S S S S S S S S S S H
|---------------------------|----------------------|
|---------------------------|----------------------|
|---------------------------|----------------------|
|---------------------------|----------------------|
|---------------------------|-1-1-1-1-1-1-1--------|
|-1b2r1-----1---1-(1)-(1)s5-|-1-1-1-1-1-1-1--------|
Pre-Verse II
PM| ~ PM--| PM| ~ PM--|
e e S E s e e Q e e S E s e e Q
|---------------------|---------------------|
|---------------------|---------------------|
|---------------------|---------------------|
|---------------1-----|---------------1-----|
|-0-0-6p5-0-0-0-1-----|-0-0-6p5-0-0-0-1-----|
|-0-0-----0-0-0-1-----|-0-0-----0-0-0-1-----|
|
| ~ ~
| E E S E S E E E. S E E S E S E E E. S
|---------------------|---------------------|
|---------------------|---------------------|
|---------------------|---------------------|
|---------------1--!1-|---------------1--!1-|
|-----6p5-------1--!1-|-----6p5-------1--!1-|
|-0-0-----0-0-0-1--!1-|-0-0-----0-0-0-1--!1-|
PM| ~ PM--| PM| ~ PM--|
e e S E s e e Q e e S E s e e Q
|---------------------|-----------------------|
|---------------------|-----------------------|
|---------------------|-----------------------|
|---------------1-----|---------------1-------|
|-0-0-6p5-0-0-0-1-----|-0-0-6p5-0-0-0-1-------|
|-0-0-----0-0-0-1-----|-0-0-----0-0-0-1-------|
|
| ~ ~
| E E S E S E E E. S E E S E S E E E. S
|---------------------|-----------------------|
|---------------------|-----------------------|
|---------------------|-----------------------|
|---------------1--!1-|---------------1--!1---|
|-----6p5-------1--!1-|-----6p5-------1--!1---|
|-0-0-----0-0-0-1--!1-|-0-0-----0-0-0-1--!1---|
Verse 2 & 4
PM PM PM
E. s E E E Q. E. s E E E Q e
|-------------------|--------------------|
|-------------------|--------------------|
|-------------------|--------------------|
|-------------------|--------------------|
|-------------------|--------------------|
|-0----0---0---0----|--0--0---0---0--0---|
|
| < <
| W W
|-------------------|--------------------|
|-------------------|--------------------|
|-7-----------------|-10-----------------|
|-------------------|--------------------|
|-5-----------------|--8-----------------|
|-------------------|--------------------|
|
| Gtr IV
| PM| PM PM|
| E s s E E E Q. E. s E E E Q s s
|-------------------|--------------------|
|-------------------|--------------------|
|-------------------|--------------------|
|-------------------|--------------------|
|-------------------|--------------------|
|-0--0-0---0---0----|--0--0---0---0--0-0-|
PM PM
E. s E e E E +E +S S S S S S S S S S H
|---------------------------|----------------------|
|---------------------------|----------------------|
|---------------------------|----------------------|
|---------------------------|----------------------|
|---------------------------|-1-1-1-1-1-1-1--------|
|-1-----1---1---1-(1)-(1)s5-|-1-1-1-1-1-1-1--------|
|
| <
| W S S S S S S S S H
|---------------------------|----------------------|
|---------------------------|----------------------|
|-8-------------------------|-8-8-8-8-8-8-8--------|
|---------------------------|----------------------|
|-6-------------------------|-6-6-6-6-6-6-6--------|
|---------------------------|----------------------|
|
| PM
| Q E e E E +E +S S S S S S S S S S H
|---------------------------|----------------------|
|---------------------------|----------------------|
|---------------------------|----------------------|
|---------------------------|----------------------|
|---------------------------|-1-1-1-1-1-1-1--------|
|-1b1.5r====1---1-(1)-(1)s5-|-1-1-1-1-1-1-1--------|
PM PM PM|
E. s E E E Q. E. s E E E Q s s
|---------------------|-----------------------|
|---------------------|-----------------------|
|---------------------|-----------------------|
|---------------------|-----------------------|
|---------------------|-----------------------|
|-0--0---0---0--------|--0--0-----0---0---0-0-|
|
| < <
| W W
|---------------------|-----------------------|
|---------------------|-----------------------|
|-7-------------------|-10--------------------|
|---------------------|-----------------------|
|-5-------------------|--8--------------------|
|---------------------|-----------------------|
|
| PM PM| PM----| PM PM|
| E. s E E E E s s E E. s s s e E e E s s
|---------------------|-----------------------|
|---------------------|-----------------------|
|---------------------|-----------------------|
|---------------------|-----------------------|
|---------------------|-----------------------|
|-0--0---0---0--0-0---|--0--0-0-0-0---0---0-0-|
PM--|
E. s E e E E +E +S S S S S S S S S S H
|---------------------------|----------------------|
|---------------------------|----------------------|
|---------------------------|----------------------|
|---------------------------|----------------------|
|---------------------------|-1-1-1-1-1-1-1--------|
|-1b2r==1---1---1-(1)-(1)s5-|-1-1-1-1-1-1-1--------|
|
| <
| W S S S S S S S S H
|---------------------------|----------------------|
|---------------------------|----------------------|
|-8-------------------------|-8-8-8-8-8-8-8--------|
|---------------------------|----------------------|
|-6-------------------------|-6-6-6-6-6-6-6--------|
|---------------------------|----------------------|
|
| PM PM
| E e E e E E +E +S S S S S S S S S S H
|---------------------------|----------------------|
|---------------------------|----------------------|
|---------------------------|----------------------|
|---------------------------|----------------------|
|---------------------------|-1-1-1-1-1-1-1--------|
|-1b2r1-----1---1-(1)-(1)s5-|-1-1-1-1-1-1-1--------|
Pre-Chorus
Q Q Q S S E E. E S E +Q S S E
||-----------------|---------------------|
||o----------------|---------------------|
||-----------------|---------------------|
||-----------x-x---|-0--3---1-(1)--1-3---|
||o----------x-x---|-0--3---1-(1)--1-3---|
||-----------x-x---|-0--3---1-(1)--1-3---|
|
| Q Q Q Q E. E S E +Q S S E
||-----------------|---------------------|
||o----------------|---------------------|
||-----------------|---------------------|
||-----------------|---------------------|
||o----------------|-0--3---1-(1)--1S3---|
||-----------------|-0--3---1-(1)--1S3---|
Q Q Q S S E E. E S E +Q S S S S
|----------------|------------------------||
|----------------|-----------------------o||
|----------------|------------------------||
|----------x-x---|-0--3---1-(1)--1-2-3----||
|----------x-x---|-0--3---1-(1)--1-2-3---o||
|----------x-x---|-0--3---1-(1)--1-2-3----||
|
| Q Q Q Q E. E S E +Q S S S S
|----------------|------------------------||
|----------------|-----------------------o||
|----------------|------------------------||
|----------------|------------------------||
|----------------|-0--3---1-(1)--1-2-3---o||
|----------------|-0--3---1-(1)--1-2-3----||
Bridge
Q=224
S S S S Q Q S S S S Q Q S S S S Q
||--------------------------|----------------------||
||o-------------------------|---------------------o||
||--------------------------|----------------------||
||--------------------------|----------------------||
||o-4h5h6-----------4h5h6---|---------4h5h6-------o||
||--0---------------0-------|---------0------------||
|
| E E E E E E E E E E E E E E E E
||--------------------------|----------------------||
||o-------------------------|---------------------o||
||--------------------------|----------------------||
||--------------------------|----------------------||
||o-0---0---0-0-0-0-0---0---|-0-0-0-0-0---0---0-0-o||
||--0---0---0-0-0-0-0---0---|-0-0-0-0-0---0---0-0--||
|-||------------------|------------------||
|-||o-----------------|-----------------o||
|-||------------------|------------------||
|-||------------------|------------------||
|-||o-----------------|-----------------o||
|-||--0-0-0-0-0-0-0-0-|-0-0-0-0-0-0-0-0--||
|
| E E E E E E E E E E E E E E E E
|-||------------------|------------------||
|-||o-----------------|-----------------o||
|-||------------------|------------------||
|-||------------------|------------------||
|-||o-0-0-0-0-0-0-0-0-|-0-0-0-0-0-0-0-0-o||
|-||--0-0-0-0-0-0-0-0-|-0-0-0-0-0-0-0-0--||
Chorus I
Q=112
PM| PM| ~ PM| ~
e e S S S S Q E E e e S S S S Q E E e e S S S S Q E E
||---------------------|--------------------|--------------------|
||o--------------------|--------------------|--------------------|
||---------------------|--------------------|--------------------|
||---------------------|--------------------|--------------------|
||o--------------------|--------------------|--------------------|
||--0-0-0-0---0-0----0-|-3-3-3-3---0-3----3-|-1-1-1-1---0-1----1-|
|
| PM| PM| ~ PM| ~
| e e S S S S Q E E e e S S S S Q E E e e S S S S Q E E
||---------------------|--------------------|--------------------|
||o--------------------|--------------------|--------------------|
||---------------------|--------------------|--------------------|
||---------------------|--------------------|--------------------|
||o--------------------|--------------------|--------------------|
||--0-0-0-0---0-0----0-|-3-3-3-3---0-3----3-|-1-1-1-1---0-1----1-|
S S S S S S S S S S S S S S S S
|--------------------------------------------------------||
|-------------------------------------------------------o||
|--------------------------------------------------------||
|--------------------------------------------------------||
|-------------------------------------------------------o||
|-12-----13-13-13-12-13-13-13-13-13-13-13-12-13-13---13--||
|
| TP
| H.. +E
|--------------------------------------------------------||
|-------------------------------------------------------o||
|--8b10=========================================(8)r-----||
|--------------------------------------------------------||
|-------------------------------------------------------o||
|--------------------------------------------------------||
S S S S S S S S H S S S S S S S S H
|----------------------|----------------------|
|----------------------|----------------------|
|----------------------|----------------------|
|-0-0-0-0-0-0-0-0------|-0-0-0-0-0-0-0-0------|
|-0-0-0-0-0-0-0-0------|-0-0-0-0-0-0-0-0------|
|-0-0-0-0-0-0-0-0------|-0-0-0-0-0-0-0-0------|
|
| S S S S S S S S H S S S S S S S S H
|----------------------|----------------------|
|----------------------|----------------------|
|----------------------|----------------------|
|-0-0-0-0-0-0-0-0------|-0-0-0-0-0-0-0-0------|
|-0-0-0-0-0-0-0-0------|-0-0-0-0-0-0-0-0------|
|-0-0-0-0-0-0-0-0------|-0-0-0-0-0-0-0-0------|
Chorus II
PM| PM----| PM----------------| PM----------------|
e e S S S S e e S e S e e S S S S e e S e S e e S S S S e e S e S
||------------------------|-----------------------|-----------------------|
||o-----------------------|-----------------------|-----------------------|
||------------------------|-----------------------|-----------------------|
||------------------------|-----------------------|-----------------------|
||o-----------------------|-----------------------|-----------------------|
||--0-0-0-0---0-0-0---0-0-|-3-3-3-3---0-3-3---0-3-|-1-1-1-1---0-1-1---0-1-|
|
| PM| PM| PM PM----------------| PM----------------|
| e e S S S S e e S e S e e S S S S e e S e S e e S S S S e e S e S
||------------------------|-----------------------|-----------------------|
||o-----------------------|-----------------------|-----------------------|
||------------------------|-----------------------|-----------------------|
||------------------------|-----------------------|-----------------------|
||o-----------------------|-----------------------|-----------------------|
||--0-0-0-0---0-0-0---0-0-|-3-3-3-3---0-3-3---0-3-|-1-1-1-1---0-1-1---0-1-|
1.
S S S S S S S S S S S S S S S S
|---------------------------------------------------------||
|--------------------------------------------------------o||
|---------------------------------------------------------||
|---------------------------------------------------------||
|--------------------------------------------------------o||
|-12-----13-13-13-12-13-13-13-13-13-13-13-12-13-13---13---||
|
| TP
| H.. +E
|---------------------------------------------------------||
|--------------------------------------------------------o||
|--8b10=========================================(8)r------||
|---------------------------------------------------------||
|--------------------------------------------------------o||
|---------------------------------------------------------||
Bridge
2.
D.S.
D.S.
S S S S S S S S S S S S S S S S
|-------------------------------------------------------||
|-------------------------------------------------------||
|-------------------------------------------------------||
|-------------------------------------------------------||
|-------------------------------------------------------||
|-12-----13-13-13-12-13-13-13-13-13-13-13-12-13-13---13-||
|
| TP
| H.. +E
|-------------------------------------------------------||
|-------------------------------------------------------||
|--8b10=========================================(8)r----||
|-------------------------------------------------------||
|-------------------------------------------------------||
|-------------------------------------------------------||
Bridge
&
E E Q Q Q
|---------------------------------|
|---------------------------------|
|---------------------------------|
|---------------------------------|
|-5-------------------------------|
|-0-------------------------------|
|
| S S S S S S S S S S S S S S S S
|---------------------------------|
|---------------------------------|
|-x-x-x-x-x-x-x-x-x-x-x-x-x-x-x-x-|
|-x-x-x-x-x-x-x-x-x-x-x-x-x-x-x-x-|
|-x-x-x-x-x-x-x-x-x-x-x-x-x-x-x-x-|
|---------------------------------|
Q=224
PM----| PM----| PM|
S S S S E E E E S S S S E E E E S S S S E E
||--------------------------|---------------------|
||o-------------------------|---------------------|
||--------------------------|---------------------|
||--------------------------|---------------------|
||o-4h5h6-----------4h5h6---|---------4h5h6-------|
||--0-------0-0-0-0-0-------|-0-0-0-0-0-------0-0-|
|
| PM----| PM----| PM|
| S S S S E E E E S S S S E E E E S S S S E E
||--------------------------|---------------------|
||o-------------------------|---------------------|
||--------------------------|---------------------|
||--------------------------|---------------------|
||o-4h5h6-----------4h5h6---|---------4h5h6-------|
||--0-------0-0-0-0-0-------|-0-0-0-0-0-------0-0-|
PM----| PM----| PM|
S S S S E E E E S S S S E E E E S S S S E E
|-------------------------|------------------------||
|-------------------------|-----------------------o||
|-------------------------|------------------------||
|-------------------------|------------------------||
|-4h5h6-----------4h5h6---|---------4h5h6---------o||
|-0-------0-0-0-0-0-------|-0-0-0-0-0-------0-0----||
|
| PM----| PM----| PM|
| S S S S E E E E S S S S E E E E S S S S E E
|-------------------------|------------------------||
|-------------------------|-----------------------o||
|-------------------------|------------------------||
|-------------------------|------------------------||
|-4h5h6-----------4h5h6---|---------4h5h6---------o||
|-0-------0-0-0-0-0-------|-0-0-0-0-0-------0-0----||
S S S S Q Q S S S S Q Q S S S S Q
|-----------------------|------------------|
|-----------------------|------------------|
|-----------------------|------------------|
|-----------------------|------------------|
|-4h5h6---------4h5h6---|-------4h5h6------|
|-0-------------0-------|-------0----------|
|
| S S S S Q Q S S S S Q Q S S S S Q
|-----------------------|------------------|
|-----------------------|------------------|
|-----------------------|------------------|
|-----------------------|------------------|
|-4h5h6---------4h5h6---|-------4h5h6------|
|-0-------------0-------|-------0----------|
S S S S Q Q S S S S Q Q S S S S Q
|-----------------------|--------------------|
|-----------------------|--------------------|
|-----------------------|--------------------|
|-----------------------|--------------------|
|-4h5h6---------4h5h6---|-------4h5h6--------|
|-0-------------0-------|-------0------------|
|
| S S S S Q Q S S S S Q Q S S S S Q
|-----------------------|--------------------|
|-----------------------|--------------------|
|-----------------------|--------------------|
|-----------------------|--------------------|
|-4h5h6---------4h5h6---|-------4h5h6--------|
|-0-------------0-------|-------0------------|
PM----| PM----| PM|
S S S S E E E E S S S S E E E E S S S S E E
||--------------------------|---------------------|
||o-------------------------|---------------------|
||--------------------------|---------------------|
||--------------------------|---------------------|
||o-4h5h6-----------4h5h6---|---------4h5h6-------|
||--0-------0-0-0-0-0-------|-0-0-0-0-0-------0-0-|
|
| PM----| PM----| PM|
| S S S S E E E E S S S S E E E E S S S S E E
||--------------------------|---------------------|
||o-------------------------|---------------------|
||--------------------------|---------------------|
||--------------------------|---------------------|
||o-4h5h6-----------4h5h6---|---------4h5h6-------|
||--0-------0-0-0-0-0-------|-0-0-0-0-0-------0-0-|
1. 2.
PM----| PM----| PM|
S S S S E E E E S S S S E E E E S S S S E E S S S S Q Q Q
|-------------------------|----------------------||--------------------|
|-------------------------|---------------------o||--------------------|
|-------------------------|----------------------||--------------------|
|-------------------------|----------------------||--------------------|
|-4h5h6-----------4h5h6---|---------4h5h6-------o||-4h5h6--------------|
|-0-------0-0-0-0-0-------|-0-0-0-0-0-------0-0--||-0------------------|
|
| PM----| PM----| PM|
| S S S S E E E E S S S S E E E E S S S S E E S S S S Q Q Q
|-------------------------|----------------------||--------------------|
|-------------------------|---------------------o||--------------------|
|-------------------------|----------------------||--------------------|
|-------------------------|----------------------||--------------------|
|-4h5h6-----------4h5h6---|---------4h5h6-------o||-4h5h6--------------|
|-0-------0-0-0-0-0-------|-0-0-0-0-0-------0-0--||-0------------------|
Interlude
Q=112
PM--| ~~~~~~ ~~~~~~ ~~~~~~ ~~~~~~
E E S S +E Q S S +E Q S S +E Q S S +E
|---------------------------------|---------------------------------|
|---------------------------------|---------------------------------|
|---------------------------------|---------------------------------|
|---------------------------------|---------------------------------|
|---------6-5-(5)---------6-5-(5)-|---------6-5-(5)---------6-5-(5)-|
|-0----0--------------------------|---------------------------------|
|
| W W
|---------------------------------|---------------------------------|
|---------------------------------|---------------------------------|
|---------------------------------|---------------------------------|
|---------------------------------|---------------------------------|
|---------------------------------|---------------------------------|
|---------------------------------|---------------------------------|
|
| Gtr III
| ~~~~~~ ~~~~~~ ~~~~~~ ~~~~~~
| S S +E Q S S +E Q S S +E Q S S +E E E
|---------------------------------|---------------------------------|
|---------------------------------|---------------------------------|
|---------------------------------|---------------------------------|
|---------------------------------|---------------------------------|
|-6-5-(5)---------6-5-(5)---------|-6-5-(5)---------6-5-(5)---------|
|---------------------------------|-------------------------0----0--|
PM--| ~~~~~~ ~~~~~~ ~~~~~~ ~~~~~~
E E S S +E Q S S +E Q S S +E Q S S +E
|---------------------------------|------------------------------------|
|---------------------------------|------------------------------------|
|---------------------------------|------------------------------------|
|---------------------------------|------------------------------------|
|---------6-5-(5)---------6-5-(5)-|---------6-5-(5)---------6-5-(5)----|
|-0----0--------------------------|------------------------------------|
|
| PM--|
| E E Q H W
|---------------------------------|------------------------------------|
|---------------------------------|------------------------------------|
|---------------------------------|------------------------------------|
|---------------------------------|------------------------------------|
|-0----0--------------------------|------------------------------------|
|-0----0--------------------------|------------------------------------|
|
| ~~~~~~ ~~~~~~ ~~~~~~ ~~~~~~
| S S +E Q S S +E Q S S +E Q S S +E E E
|---------------------------------|------------------------------------|
|---------------------------------|------------------------------------|
|---------------------------------|------------------------------------|
|---------------------------------|------------------------------------|
|-6-5-(5)---------6-5-(5)---------|-6-5-(5)---------6-5-(5)------------|
|---------------------------------|-------------------------0----0-----|
PM--| ~~~~~~PM--| ~~~~~~ PM--| ~~~~~~PM--| ~~~~~~
E E S S +E E E S S +E E E S S +E E E S S +E
|---------------------------------|---------------------------------|
|---------------------------------|---------------------------------|
|---------------------------------|---------------------------------|
|---------------------------------|---------------------------------|
|---------6-5-(5)---------6-5-(5)-|---------6-5-(5)---------6-5-(5)-|
|-0----0----------0----0----------|-0----0----------0----0----------|
|
| PM--| PM--| PM--| PM--|
| E E Q E E Q E E Q E E Q
|---------------------------------|---------------------------------|
|---------------------------------|---------------------------------|
|---------------------------------|---------------------------------|
|---------------------------------|---------------------------------|
|-0----0----------0----0----------|-0----0----------0----0----------|
|-0----0----------0----0----------|-0----0----------0----0----------|
|
| ~~~~~~ ~~~~~~ ~~~~~~ ~~~~~~PM--|
| S S +E Q S S +E Q S S +E Q S S +E E E
|---------------------------------|---------------------------------|
|---------------------------------|---------------------------------|
|---------------------------------|---------------------------------|
|---------------------------------|---------------------------------|
|-6-5-(5)---------6-5-(5)---------|-6-5-(5)---------6-5-(5)---------|
|---------------------------------|-------------------------0----0--|
PM--| ~~~~~~PM--| ~~~~~~ PM--| ~~~~~~PM--| ~~~~~~
E E S S +E E E S S +E E E S S +E E E S S +E
|---------------------------------|------------------------------------|
|---------------------------------|------------------------------------|
|---------------------------------|------------------------------------|
|---------------------------------|------------------------------------|
|---------6-5-(5)---------6-5-(5)-|---------6-5-(5)---------6-5-(5)----|
|-0----0----------0----0----------|-0----0----------0----0-------------|
|
| PM--| PM--| PM--| PM--|
| E E Q E E Q E E Q E E Q
|---------------------------------|------------------------------------|
|---------------------------------|------------------------------------|
|---------------------------------|------------------------------------|
|---------------------------------|------------------------------------|
|-0----0----------0----0----------|-0----0----------0----0-------------|
|-0----0----------0----0----------|-0----0----------0----0-------------|
|
| ~~~~~~ ~~~~~~ ~~~~~~ ~~~~~~PM--|
| S S +E Q S S +E Q S S +E Q S S +E E E
|---------------------------------|------------------------------------|
|---------------------------------|------------------------------------|
|---------------------------------|------------------------------------|
|---------------------------------|------------------------------------|
|-6-5-(5)---------6-5-(5)---------|-6-5-(5)---------6-5-(5)------------|
|---------------------------------|-------------------------0----0-----|
S S S S S S S S S S S S S S S S S S S S S S S S S S S S S S S S
||----------------------------------|---------------------------------|
||o---------------------------------|---------------------------------|
||----------------------------------|---------------------------------|
||----------------------------------|---------------------------------|
||o-1-1-1-1-1-1-1-1-1-1-1-1-1-1-1-1-|-1-1-1-1-1-1-1-1-1-1-1-1-1-1-1-1-|
||--1-1-1-1-1-1-1-1-1-1-1-1-1-1-1-1-|-1-1-1-1-1-1-1-1-1-1-1-1-1-1-1-1-|
|
| S S S S S S S S S S S S S S S S S S S S S S S S S S S S S S S S
||----------------------------------|---------------------------------|
||o---------------------------------|---------------------------------|
||----------------------------------|---------------------------------|
||----------------------------------|---------------------------------|
||o-1-1-1-1-1-1-1-1-1-1-1-1-1-1-1-1-|-1-1-1-1-1-1-1-1-1-1-1-1-1-1-1-1-|
||--1-1-1-1-1-1-1-1-1-1-1-1-1-1-1-1-|-1-1-1-1-1-1-1-1-1-1-1-1-1-1-1-1-|
PM| ~~~~~~PM| ~~~~~~ PM| ~~~~~~PM| ~~~~~~
E E S S +E E E S S +E E E S S +E E E S S +E
|-------------------------|----------------------------||
|-------------------------|---------------------------o||
|-------------------------|----------------------------||
|-------------------------|----------------------------||
|-----6-5-(5)-----6-5-(5)-|-----6-5-(5)-----6-5-(5)---o||
|-0-0---------0-0---------|-0-0---------0-0------------||
|
| PM| PM| PM| PM|
| E E Q E E Q E E Q E E Q
|-------------------------|----------------------------||
|-------------------------|---------------------------o||
|-------------------------|----------------------------||
|-------------------------|----------------------------||
|-0-0---------0-0---------|-0-0---------0-0-----------o||
|-0-0---------0-0---------|-0-0---------0-0------------||
T T T T E E T T T T E E T T T T E T T T T E E T T T T E E T T T T E
|-----------------------------------|------------------------------------|
|-----------------------------------|------------------------------------|
|-----------------------------------|------------------------------------|
|-----------------------------------|------------------------------------|
|-4h5h6-------4h5h6-------4h5h6-----|-4h5h6-------4h5h6-------4h5h6------|
|-0-----------0-----------0---------|-0-----------0-----------0----------|
|
| T T T T E E T T T T E E T T T T E T T T T E E T T T T E E T T T T E
|-----------------------------------|------------------------------------|
|-----------------------------------|------------------------------------|
|-----------------------------------|------------------------------------|
|-----------------------------------|------------------------------------|
|-4h5h6-------4h5h6-------4h5h6-----|-4h5h6-------4h5h6-------4h5h6------|
|-0-----------0-----------0---------|-0-----------0-----------0----------|
PM------------------------------------|
s e s e s e s e s e s e s e s e s e s S S E
||------------------------|-----------------------|
||o-----------------------|-----------------------|
||------------------------|-----------------------|
||------------------------|-----------------------|
||o-0-0-0-0-0-0-0-0-0-0-0-|-0-0-0-0-0-0-0-0-1-1-1-|
||--0-0-0-0-0-0-0-0-0-0-0-|-0-0-0-0-0-0-0-0-1-1-1-|
|
| PM------------------------------------|
| s e s e s e s e s e s e s e s e s e s S S E
||------------------------|-----------------------|
||o-----------------------|-----------------------|
||------------------------|-----------------------|
||------------------------|-----------------------|
||o-0-0-0-0-0-0-0-0-0-0-0-|-0-0-0-0-0-0-0-0-1-1-1-|
||--0-0-0-0-0-0-0-0-0-0-0-|-0-0-0-0-0-0-0-0-1-1-1-|
PM------------------------------------|
s e s e s e s e s e s e s e s e s e s S S E
|-----------------------|--------------------------||
|-----------------------|-------------------------o||
|-----------------------|--------------------------||
|-----------------------|--------------------------||
|-0-0-0-0-0-0-0-0-0-0-0-|-0-0-0-0-0-0-0-0-1-1-1---o||
|-0-0-0-0-0-0-0-0-0-0-0-|-0-0-0-0-0-0-0-0-1-1-1----||
|
| PM------------------------------------|
| s e s e s e s e s e s e s e s e s e s S S E
|-----------------------|--------------------------||
|-----------------------|-------------------------o||
|-----------------------|--------------------------||
|-----------------------|--------------------------||
|-0-0-0-0-0-0-0-0-0-0-0-|-0-0-0-0-0-0-0-0-1-1-1---o||
|-0-0-0-0-0-0-0-0-0-0-0-|-0-0-0-0-0-0-0-0-1-1-1----||
S S S S S S S S S S S S S S S S S S S S S S S S S S S S S S S S
|---------------------------------|---------------------------------|
|---------------------------------|---------------------------------|
|---------------------------------|---------------------------------|
|---------------------------------|---------------------------------|
|-1-1-1-1-1-1-1-1-1-1-1-1-1-1-1-1-|-1-1-1-1-1-1-1-1-1-1-1-1-1-1-1-1-|
|-1-1-1-1-1-1-1-1-1-1-1-1-1-1-1-1-|-1-1-1-1-1-1-1-1-1-1-1-1-1-1-1-1-|
|
| S S S S S S S S S S S S S S S S S S S S S S S S S S S S S S S S
|---------------------------------|---------------------------------|
|---------------------------------|---------------------------------|
|---------------------------------|---------------------------------|
|-1-1-1-1-1-1-1-1-1-1-1-1-1-1-1-1-|-1-1-1-1-1-1-1-1-1-1-1-1-1-1-1-1-|
|-1-1-1-1-1-1-1-1-1-1-1-1-1-1-1-1-|-1-1-1-1-1-1-1-1-1-1-1-1-1-1-1-1-|
|-1-1-1-1-1-1-1-1-1-1-1-1-1-1-1-1-|-1-1-1-1-1-1-1-1-1-1-1-1-1-1-1-1-|
T T T T Q T T T T Q T T T T E T T T T S S S S S S S S S S S S S S
|-----------------------------------|--------------------------------------|
|-----------------------------------|--------------------------------------|
|-----------------------------------|--------------------------------------|
|-----------------------------------|--------------------------------------|
|-4h5h6-------4h5h6-------4h5h6-----|-4h5h6--------------------------------|
|-0-----------0-----------0---------|-0-------1-1-1--1-1-0-1-1-1-1-0-1-1-1-|
|
| T T T T Q T T T T Q T T T T E T T T T E H.
|-----------------------------------|--------------------------------------|
|-----------------------------------|--------------------------------------|
|-----------------------------------|--------------------------------------|
|-----------------------------------|--------------------------------------|
|-4h5h6-------4h5h6-------4h5h6-----|-4h5h6--------------------------------|
|-0-----------0-----------0---------|-0------------------------------------|
S. T E E S. T E E S. T E
Chorus III
S S S S S S S S S S S S S S S S S S S S S S S S S S S S S S S S
|---------------------------------|---------------------------------|
|---------------------------------|---------------------------------|
|---------------------------------|---------------------------------|
|---------------------------------|---------------------------------|
|-0-0-0-0-0-0-0-0-0-0-0-0-0-0-0-0-|-3-3-3-3-3-3-3-3-3-3-3-3-3-3-3-3-|
|-0-0-0-0-0-0-0-0-0-0-0-0-0-0-0-0-|-3-3-3-3-3-3-3-3-3-3-3-3-3-3-3-3-|
|
| S S S S S S S S S S S S S S S S S S S S S S S S S S S S S S S S
|---------------------------------|---------------------------------|
|---------------------------------|---------------------------------|
|---------------------------------|---------------------------------|
|---------------------------------|---------------------------------|
|---------------------------------|---------------------------------|
|-0-0-0-0-0-0-0-0-0-0-0-0-0-0-0-0-|-3-3-3-3-3-3-3-3-3-3-3-3-3-3-3-3-|
S S S S S S S S S S S S Q S S S S S S S S S S S S Q
|------------------------------|-----------------------------------------------------|
|------------------------------|-----------------------------------------------------|
|------------------------------|-----------------------------------------------------|
|------------------------------|-----------------------------------------------------|
|-1---1-1---1-1---1-1---1-13\--|-12-13-13-12-13-13-12-13-13-12-13-13-12\-------------|
|-1---1-1---1-1---1-1---1-13\--|-12-13-13-12-13-13-12-13-13-12-13-13-12\-------------|
|
| S S S S S S S S S S S S Q S S S S S S S S S S S S S S S S
|------------------------------|-----------------------------------------------------|
|------------------------------|-----------------------------------------------------|
|------------------------------|-----------------------------------------------------|
|------------------------------|-----------------------------------------------------|
|-1---1-1---1-1---1-1---1-13\--|-----------------------------------------------------|
|-1---1-1---1-1---1-1---1-13\--|-12-13-13-12-13-13-12-13-13-12-13-13-12--13-13-13----|
S S S S S S S S S

Important: The song above is NOT stored on the Chordie server. The original song is hosted at www.guitaretab.com. Chordie works as a search engine and provides on-the-fly formatting. Chordie does not index songs against artists'/composers' will. To remove this song please click here.

Text color:
Chord color:
Chord grids: 
Font size:    
Page size: 

D5 Eb5 F5
Rate #3 of 4 versions

Login - add to songbook

SHARE PAGE  




You need to log in to post comments