Guitar Tabs, Chords and Lyrics
Major upgrade!! After one year development the new version of Chordie is now online! Please give feedback.


Cartoons and Macramé Wounds  Mew

Cartoons and Macramé Wounds
Tabbed by: Rob Ferrín
Standard tuning
You [A]drew me car[F#m]to---[D]ons...so [C#m]playful
You [A]drew me car[F#m]to---[D]ons...so [E]playful (Oh)
You [A]drew me car[F#m]to---[D]ons...so [C#m]playful (Memories drown)
You [A]drew me car[F#m]to---[D]ons...so [E]playful (Memories drown)
You [A]drew me car[F#m]to---[D]ons...so [E]playful (Nobody?s gone tonight)
[A]You drew me c[(E)]arto[A]ons, drew me c[(E)]arto[A]ons
drew me c[(E)]arto[A]ons, drew me c[(E)]arto[F#m]ons
You [F#m]watch the way you're always keeping score,
you keep the score, you keep it.
You [E]watch the way you're always keeping score,
you [G#m]keep the score, you [C#m]keep it.
You [F#m]watch the way you're always keeping score,
you keep the score, you keep it.
You [E]watch the way you're always keeping score,
you [G#m]keep the score, you [C#m]keep it.
You [F#m]watch the way you're always keeping score,
you [G#m]keep the score, you [C#m]keep it.
Instrumental(piano arranged for guitar):
[F#m] [D]  
 
 e|--5-4-2-4-------2-3-5-2--0--|
 b|----------2-----------------|
 g|----------------------------|
 D|----------------------------|
 A|----------------------------|
 E|----------------------------|

[F] [C]  
 
 e|----0-1-3--0----0-3---------|
 b|--3-----------------3-1-----|
 g|----------------------------|
 D|----------------------------|
 A|----------------------------|
 E|----------------------------|

[F#m]Put your hand in mine, [D]we will go skating
[F]On the thinnest ice [C]that we can find.
(A[Bb]ah...) It takes me [C]summer to say
[Bb] It takes me [C]winter in a day
Instrumental 2:
[D] [E] [C#m] [D]  
 
 e|--5-4-2-4-0---5-4-2-4-0---5-4-2-4-2----|
 b|---------------------------------------|
 g|---------------------------------------|
 D|---------------------------------------| (X2)
 A|---------------------------------------|
 E|---------------------------------------|

[C]Honestly see, [Bb]they're like you and me
[F#m]Frozen when we start, [D]we cannot help it.
[F]Easy to destruct...[C]taken apart.
[F#m]Put your hand in mine, [D]we will go skating
[F]On the thinnest ice [C]that we can find.
(A[Bb]ah...) Tonight I'm [C]watching the s[Bb]ky
The creatures y[C]ou drew, they remain a[Bb]live
The cushions [C]lying here...and what do you [Bb]want?
Is this what [C]happens to us now?
[D]Sunk beneath the sea, [E]that's no way to be.
[C#m]What came over me?[D]
[D]Growing old with you, [E]this is what we do.
[C#m]We are leaving wounds.[D]
Repeat til ends!
Corrections/comments: myspace.com/guerrerosdecarton

Important: The song above is NOT stored on the Chordie server. The original song is hosted at www.guitaretab.com. Chordie works as a search engine and provides on-the-fly formatting. Chordie does not index songs against artists'/composers' will. To remove this song please click here.

Text color:
Chord color:
Chord grids: 
Font size:    
Page size: 

A Bb C C#m D E F F#m G#m
Rate #2 of 2 versions

Login - add to songbook

SHARE PAGE  



You need to log in to post comments