Guitar Tabs, Chords and Lyrics
Server problems seems to be fixed. Chordie has been experiencing problems with songs disappearing. These issues now seems to be fixed, but still verifying the fix. If you find anything strange, please email admin@chordie.com.


Kids  MGMT

MGMT - Kids Acoustic
This is the acoustic cover version of Erich Andrews (aka YourGuitarSage) from YouTube.
http://www.youtube.com/watch?v=678IqWMJKAY
I personally think it's the best acoustic version out there! Enjoy.
Tabbed by: swiz2000
Capo on 2
___________________________________________________________________________
Intro
[Em] [C] [G] [D/F#]  
 
 e|-----------------|-0---2-0---------|-----------------|-----------------|
 B|---------0---3---|-----------3---0-|-----------------|---------1/0-----|
 G|-0---2-----------|---0-------------|-----------------|-2-----------2/0-|
 D|---2---2---2---2-|-----------------|---0---0---0---0-|---0---0---------|
 A|-----------------|-3---3---3---3---|-----------------|-----------------|
 E|-0---0---0---0---|-----------------|-3---3---3---3---|-2---2---2---2---|

[Em] [C] [G] [D/F#]  
 
 e|-----------------|-0---2-0---------|-----------------|-----------------|
 B|---------0---3---|-----------3---0-|-----------------|-----------------|
 G|-0---2-----------|---0-------------|-----------------|-2---------------|
 D|---2---2---2---2-|-----------------|---0---0---0---0-|---0---0---0---0-|
 A|-----------------|-3---3---3---3---|-----------------|-----------------|
 E|-0---0---0---0---|-----------------|-3---3---3---3---|-2---2---2---2---|

[Em] [C] [G] [D/F#]  
 
 e|-----------------|-0---2-0---------|-----------------|-----------------|
 B|---------0---3---|-----------3---0-|-----------------|---------1/0-----|
 G|-0---2-----------|---0-------------|-----------------|-2-----------2/0-|
 D|---2---2---2---2-|-----------------|---0---0---0---0-|---0---0---------|
 A|-----------------|-3---3---3---3---|-----------------|-----------------|
 E|-0---0---0---0---|-----------------|-3---3---3---3---|-2---2---2---2---|

[Em] [C] [G] [G]  
 
 e|-----------------|-----------------|-----------------|-----------------|
 B|---------0-------|-------------0---|-----------------|-----------------|
 G|-0---2-------2---|-0---2-0---------|-0---------------|-----------------|
 D|---2---2---2---2-|---2-------2-----|---0---0---0---0-|---0---0---------|
 A|-----------------|-3---3---3---3---|-----------------|-----------0-----|
 E|-0---0---0---0---|-----------------|-3---3---3---3---|-3---3---3---3-2-|

___________________________________________________________________________
Verse
[Em] [C] [G] [D/F#]  
 
 e|-----------------|-----------------|-----------------|-----------------|
 B|-----------------|-----------------|-----------------|-----------------|
 G|-----------------|-----------------|-----------------|-----------------|
 D|---2---2---2---2-|---2---2---2---2-|---0---0---0---0-|---0---0---0---0-|
 A|-----------------|-3---3---3---3---|-----------------|-----------------|
 E|-0---0---0---0---|-----------------|-3---3---3---3---|-2---2---2---2---|

You were a child, crawlin' on your...
knees toward it.
[Em] [C] [G] [D/F#]  
 
 e|-----------------|-----------------|-----------------|-----------------|
 B|-----------------|-----------------|-----------------|-----------------|
 G|-----------------|-----------------|-----------------|-----------------|
 D|---2---2---2---2-|---2---2---2---2-|---0---0---0---0-|---0---0---0---0-|
 A|-----------------|-3---3---3---3---|-----------------|-----------------|
 E|-0---0---0---0---|-----------------|-3---3---3---3---|-2---2---2---2---|

Makin' mama so proud, but your voice was too...
loud.
[Em] [C] [G] [D/F#]  
 
 e|-----------------|-----------------|-----------------|-----------------|
 B|-----------------|-----------------|-----------------|-----------------|
 G|-----------------|-----------------|-----------------|-----------------|
 D|---2---2---2---2-|---2---2---2---2-|---0---0---0---0-|---0---0---0---0-|
 A|-----------------|-3---3---3---3---|-----------------|-----------------|
 E|-0---0---0---0---|-----------------|-3---3---3---3---|-2---2---2---2---|

We like to watch you laughing.
[Em] [C] [G] [G]  
 
 e|-----------------|-----------------|-----------------|-----------------|
 B|-----------------|-----------------|-----------------|-----------------|
 G|-----------------|-----------------|-----------------|-----------------|
 D|---2---2---2---2-|---2---2---2---2-|---0---0---0---0-|---0---0---0---0-|
 A|-----------------|-3---3---3---3---|-----------------|-----------------|
 E|-0---0---0---0---|-----------------|-3---3---3---3---|-3---3---3---3---|

You pick the insects off...
plants. No time to think of consequences.
___________________________________________________________________________
Chorus
[Em] [C] [G] [D/F#]  
 
 e|-----------------|-0---2-0---------|-----------------|-----------------|
 B|---------0---3---|-----------3---0-|-----------------|-----------------|
 G|-0---2-----------|---0-------------|-----------------|-2---------------|
 D|---2---2---2---2-|-----------------|---0---0---0---0-|---0---0---0---0-|
 A|-----------------|-3---3---3---3---|-----------------|-----------------|
 E|-0---0---0---0---|-----------------|-3---3---3---3---|-2---2---2---2---|

Control yourself. Take only what you...
need from it.
[Em] [C] [G] [D/F#]  
 
 e|-----------------|-0---2-0---------|-----------------|-----------------|
 B|---------0---3---|-----------3---0-|-----------------|-----------------|
 G|-0---2-----------|---0-------------|-----------------|-2---------------|
 D|---2---2---2---2-|-----------------|---0---0---0---0-|---0---0---0---0-|
 A|-----------------|-3---3---3---3---|-----------------|-----------------|
 E|-0---0---0---0---|-----------------|-3---3---3---3---|-2---2---2---2---|

A family of trees wantin', To be haunted.
[Em] [C] [G] [D/F#]  
 
 e|-----------------|-0---2-0---------|-----------------|------------------|
 B|---------0---3---|-----------3---0-|-----------------|---------1/0------|
 G|-0---2-----------|---0-------------|-----------------|-2-----------2/0--|
 D|---2---2---2---2-|-----------------|---0---0---0---0-|---0---0----------|
 A|-----------------|-3---3---3---3---|-----------------|------------------|
 E|-0---0---0---0---|-----------------|-3---3---3---3---|-2---2---2---2----|

Control yourself. Take only what you...
need from it.
[Em] [C] [G] [D/F#]  
 
 e|-----------------|-----------------|-----------------|------------------|
 B|---------0-------|-------------0---|-----------------|------------------|
 G|-0---2-------2---|-0---2-0---------|-0---------------|------------------|
 D|---2---2---2---2-|---2-------2-----|---0---0---0---0-|---0---0---0---0--|
 A|-----------------|-3---3---3---3---|-----------------|------------------|
 E|-0---0---0---0---|-----------------|-3---3---3---3---|-2---2---2---2----|

A family of trees wantin', To be haunted.
___________________________________________________________________________
Bridge
Em............ C.............. G............... D..............
The water is warm, but it's sending me shivers.
Em............ C.............. G............... D.............
A baby is born, crying out for attention
Em............ C.............. G............... D.............
Memories fade, like looking through a...
fogged mirror.
Em.......... C.......... G............... D.............
Decision to decisions are made and not bought but I...
thought, this wouldn't hurt a...
lot but I guess not.
___________________________________________________________________________
Repeat Chorus
___________________________________________________________________________
[End]  
[Em] [C] [G] [D/F#]  
 
 e|-----------------|-0---2-0---------|-----------------|------------------|
 B|---------0---3---|-----------3---0-|-----------------|---------1/0------|
 G|-0---2-----------|---0-------------|-----------------|-2-----------2/0--|
 D|---2---2---2---2-|-----------------|---0---0---0---0-|---0---0----------|
 A|-----------------|-3---3---3---3---|-----------------|------------------|
 E|-0---0---0---0---|-----------------|-3---3---3---3---|-2---2---2---2----|

Control yourself. Take only what you...
need from it.
[Em] [C] [G] [D/F#]  
 
 e|-----------------|-----------------|-----------------|------------------|
 B|---------0-------|-------------0---|-----------------|------------------|
 G|-0---2-------2---|-0---2-0---------|-0---------------|------------------|
 D|---2---2---2---2-|---2-------2-----|---0---0---0---0-|---0---0---0---0--|
 A|-----------------|-3---3---3---3---|-----------------|------------------|
 E|-0---0---0---0---|-----------------|-3---3---3---3---|-2---2---2---2----|

A family of trees wantin', To be haunted.
[Em] [C] [G]  
 
 e|-----------------|-----------------|---|
 B|---------0-------|-------------0---|---|
 G|-0---2-------2---|-0---2-0---------|-0-|
 D|---2---2---2---2-|---2-------2-----|---|
 A|-----------------|-3---3---3---3---|---|
 E|-0---0---0---0---|-----------------|-3-|

___________________________________________________________________________

Important: The song above is NOT stored on the Chordie server. The original song is hosted at www.guitaretab.com. Chordie works as a search engine and provides on-the-fly formatting. Chordie does not index songs against artists'/composers' will. To remove this song please click here.

Text color:
Chord color:
Chord grids: 
Font size:    
Page size: 

C D/F# Em G
Rate #1 of 8 versions

Jango Player

Login - add to songbook

SHARE PAGE  



You need to log in to post comments