Guitar Tabs, Chords and Lyrics
Server problems seems to be fixed. Chordie has been experiencing problems with songs disappearing. These issues now seems to be fixed, but still verifying the fix. If you find anything strange, please email admin@chordie.com.


Naked Ladies and Electric Ragtime  Michael Chapman

 
 -------------------------------------------------------------------------------

NAKED LADIES AND ELECTRIC RAGTIME ? Michael Chapman
(Michael Chapman)
Fully Qualified Survivor (1970)
 
 -------------------------------------------------------------------------------

Tabbed by: varannion
Email: dm_hughes1@hotmail.com
Tuning: standard
Capo: second fret (Notes at the second fret are considered to be open and
are notated as ?0?. Standard notation applies to all other notes)
[D] [A/C#] [Bm] [D/A]  
 
 e|------------0------------0----------|------------------------0--(0)------|
 B|----3---5-------5--(5)-------5---3--|-(3)--------------------3--(3)------|
 G|------------------------------------|-------4-------0--(0)------------0--|
 D|------------4----------------0------|-----------4----------------4-------|
 A|----5---------------4---------------|--0---------------------------------|
 E|------------------------------------|-------------------5----------------|

[G] [D/F#] [A7]  
 
 e|--------------------0--------------|-----------3p0------0---3--(3)-----|
 B|--------3---5-----------5---3---5--|-(5)------------5---------------0--|
 G|----4-----------0------------------|-------0---------------------------|
 D|------------5---------------4------|-----------0----------------0------|
 A|-----------------------------------|-----------------------------------|
 E|----3---------------0--------------|--5-----------------5--------------|

[D] [A/C#] [Bm] [D/A]  
 
 e|------------0------------0----------|------------------------0--(0)------|
 B|----3---5-------5--(5)-------5---3--|-(3)--------------------3--(3)------|
 G|------------------------------------|-------4-------0--(0)------------0--|
 D|------------4----------------0------|-----------4----------------4-------|
 A|----5---------------4---------------|--0---------------------------------|
 E|------------------------------------|-------------------5----------------|

[E7/G#] [A7]  
 
 e|-------------------------0---4---5--|-(5)-------3p0------0---3----------|
 B|--------0---3---5--(5)--------------|----------------5---------------0--|
 G|----4-------------------------------|-----------------------------------|
 D|------------0----------------0------|-------0--------------------0------|
 A|------------------------------------|-----------------------------------|
 E|----4---------------4---------------|--5-----------------5--------------|

[G] [D7]  
 
 e|---------------------------------|-----------------------------------|
 B|--------5p3-------3---5----------|--3---5----------------3--(3)------|
 G|----4---------4---------------0--|--------------5--(5)------------0--|
 D|----------5---------------5------|----------4------------------------|
 A|---------------------------------|--5---------------5----------------|
 E|----3-------------3--------------|---------------------------5-------|

pb
[G] [G#dim7]  
 
 e|-------------------------------------|--4---4-------7------10---------|
 B|---(5b)6r5-------3-------3---5--(5)--|--3---3-------6------9-------0--|
 G|---------------------4---------------|--4---4-------7------10---------|
 D|-------------5-------------------5---|--3---3-------6------9----------|
 A|-------------------------------------|--------------------------------|
 E|----3----------------3---------------|--------------------------------|

[D] [A/C#] [Bm] [D/A]  
 
 e|--------0---0------------0----------|------------------------0--(0)------|
 B|----3-----------5--(5)-------5---3--|-(3)--------------------3--(3)------|
 G|------------------------------------|-------4-------0--(0)------------0--|
 D|------------4----------------0------|-----------4----------------4-------|
 A|----5---------------4---------------|--0---------------------------------|
 E|------------------------------------|-------------------5----------------|

rake
[G] [A7] [D] [A] [D]  
 
 e|--------------------0--------------|----------------------------|
 B|--------5---3-----------6---5---3--|-(3)-------0---5---3---3----|
 G|----4-----------0------------------|-------0---------------0----|
 D|------------5---------------0------|-----------------------4----|
 A|-----------------------------------|--5----------------5---5----|
 E|----3---------------5--------------|-----------5----------------|

[D] [D6sus4] [D] [D] [A/C#] [Bm7] [A]  
 
 e|----------10---7-------------------|--0-------------------------|
 B|----5/7------------10---7h8---7----|-------5----3---------------|
 G|----5/7-----------------7-----7----|----------------0--(0)---0--|
 D|----5/7-----------------7h9---7----|----------------------------|
 A|-----------------------------------|--5----4----0---------------|
 E|-----------------------------------|--------------------5-------|

[G] [A] [D]  
 
 e|--------------------0--------------|---------------------------|
 B|--------5---3-----------6---5---3--|-(3)------0---5---3---3----|
 G|----4-----------0------------------|------0---------------0----|
 D|------------5---------------0------|---------------------------|
 A|-----------------------------------|--5---------------5---5----|
 E|----3---------------5--------------|----------5----------------|

[D] [A/C#] [Bm] [D/A]  
 
 e|------------0------------0----------|------------------------0--(0)------|
 B|----3---5-------5--(5)-------5---3--|-(3)--------------------3--(3)------|
 G|------------------------------------|-------4-------0--(0)------------0--|
 D|------------4----------------0------|-----------4----------------4-------|
 A|----5---------------4---------------|--0---------------------------------|
 E|------------------------------------|-------------------5----------------|

[G] [D/F#] [A7]  
 
 e|--------------------0--------------|-----------3p0------0---3--(3)-----|
 B|--------3---5-----------5---3---5--|-(5)------------5---------------0--|
 G|----4-----------0------------------|-------0---------------------------|
 D|------------5---------------4------|-----------0----------------0------|
 A|-----------------------------------|-----------------------------------|
 E|----3---------------0--------------|--5-----------------5--------------|

[D] [A/C#] [Bm] [D/A]  
 
 e|------------0------------0----------|------------------------0--(0)------|
 B|----3---5-------5--(5)-------5---3--|-(3)--------------------3--(3)------|
 G|------------------------------------|-------4-------0--(0)------------0--|
 D|------------4----------------0------|-----------4----------------4-------|
 A|----5---------------4---------------|--0---------------------------------|
 E|------------------------------------|-------------------5----------------|

[E7/G#] [A7]  
 
 e|-------------------------0---4---5--|-(5)-------3p0------0---3----------|
 B|--------0---3---5--(5)--------------|----------------5---------------0--|
 G|----4-------------------------------|-----------------------------------|
 D|------------0----------------0------|-------0--------------------0------|
 A|------------------------------------|-----------------------------------|
 E|----4---------------4---------------|--5-----------------5--------------|

[G] [D7]  
 
 e|---------------------------------|-----------------------------------|
 B|--------5p3-------3---5----------|--3---5----------------3--(3)------|
 G|----4---------4---------------0--|--------------5--(5)------------0--|
 D|----------5---------------5------|----------4------------------------|
 A|---------------------------------|--5---------------5----------------|
 E|----3-------------3--------------|---------------------------5-------|

pb
[G] [G#dim7]  
 
 e|-------------------------------------|--4---4-------7------10---------|
 B|---(5b)6r5-------3-------3---5--(5)--|--3---3-------6------9-------0--|
 G|---------------------4---------------|--4---4-------7------10---------|
 D|-------------5-------------------5---|--3---3-------6------9----------|
 A|-------------------------------------|--------------------------------|
 E|----3----------------3---------------|--------------------------------|

[D] [A/C#] [Bm] [D/A]  
 
 e|--------0---0------------0----------|------------------------0--(0)------|
 B|----3-----------5--(5)-------5---3--|-(3)--------------------3--(3)------|
 G|------------------------------------|-------4-------0--(0)------------0--|
 D|------------4----------------0------|-----------4----------------4-------|
 A|----5---------------4---------------|--0---------------------------------|
 E|------------------------------------|-------------------5----------------|

rake
[G] [A7] [D] [A] [D]  
 
 e|--------------------0--------------|----------------------------|
 B|--------5---3-----------6---5---3--|-(3)-------0---5---3---3----|
 G|----4-----------0------------------|-------0---------------0----|
 D|------------5---------------0------|-----------------------4----|
 A|-----------------------------------|--5----------------5---5----|
 E|----3---------------5--------------|-----------5----------------|

[D] [D6sus4] [D] [D] [A/C#] [Bm7] [A]  
 
 e|----------10---7-------------------|--0-------------------------|
 B|----5/7------------10---7h8---7----|-------5----3---------------|
 G|----5/7-----------------7-----7----|----------------0--(0)---0--|
 D|----5/7-----------------7h9---7----|----------------------------|
 A|-----------------------------------|--5----4----0---------------|
 E|-----------------------------------|--------------------5-------|

[G] [A] [D]  
 
 e|--------------------0--------------|---------------------------|
 B|--------5---3-----------6---5---3--|-(3)------0---5---3---3----|
 G|----4-----------0------------------|------0---------------0----|
 D|------------5---------------0------|---------------------------|
 A|-----------------------------------|--5---------------5---5----|
 E|----3---------------5--------------|----------5----------------|

[E] [A]  
 
 e|--------0--(0)-------0-----------|------7---5-------5--------------|
 B|----5------------5-------5--(5)--|--------------7-------7-------3--|
 G|---------------------------------|---------------------------------|
 D|------------6----------------6---|----------7---------------7------|
 A|----7----------------------------|------------------------------3--|
 E|---------------------7-----------|--5---------------5--------------|

[D]  
 
 e|----------10---7---------------|-----------------------------|
 B|----5/7------------10---7------|--7h8---7h8---7-----------0--|
 G|----5/7---------------------7--|--7---------------7----------|
 D|----5/7------------------------|--7h9---7h9---7--------------|
 A|-------------------------------|-----------------------------|
 E|-------------------------------|----------------------0------|

[E] [A7] [D]  
 
 e|--------0--(0)-------0---------------|------7---5-------5--------------|
 B|----5------------5-------5--(5)------|--------------7-------7-------3--|
 G|----------------------------------0--|------------------------------0--|
 D|------------6----------------6-------|----------7---------------7------|
 A|----7--------------------------------|------------------------------5--|
 E|---------------------7---------------|--5---------------5--------------|

[D]  
 
 e|--------------10h13-13b14r13-13p10-----|--10---------------------------|
 B|--------10h13----------------------13--|------13p10--------------------|
 G|---------------------------------------|-------------12p10-------------|
 D|---------------------------------------|--------------------12---------|
 A|---------------------------------------|------------------------0------|
 E|---------------------------------------|-------------------------------|

[E] [A] [D]  
 
 e|--------0--(0)-------0---------------|------7---5-------5--------------|
 B|----5------------5-------5--(5)------|--------------7-------7-------3--|
 G|----------------------------------0--|------------------------------0--|
 D|------------6----------------6-------|----------7---------------7------|
 A|----7--------------------------------|------------------------------5--|
 E|---------------------7---------------|--5---------------5--------------|

[D]  
 
 e|--------------10p7----------(7)--|--10-------10---------------------|
 B|--------5/7----------10p7--------|--8b9------8b9--------------------|
 G|--------5/7----------------------|-----------------10---7-----------|
 D|--------5/7----------------------|----------------------------------|
 A|---------------------------------|----------------------------------|
 E|---------------------------------|-----------------------------0----|

[G] [D7]  
 
 e|-------------------------------|------0--(0)------------------------|
 B|--------5---3-------3---5------|------------------------3--(3)------|
 G|----4-----------4-----------0--|---------------5--(5)------------0--|
 D|------------5-----------5------|----------4-------------------------|
 A|-------------------------------|--5----------------5----------------|
 E|----3---------------3----------|----------------------------5-------|

pb
[G] [G#dim7]  
 
 e|-------------------------------------|--4---4-------7------10--(10)--|
 B|---(5b)6r5-------3-------3---5--(5)--|--3---3-------6------9---(9)---|
 G|---------------------4---------------|--4---4-------7------10--(10)--|
 D|-------------5-------------------5---|--3---3-------6------9---(9)---|
 A|-------------------------------------|-------------------------------|
 E|----3----------------3---------------|-------------------------------|

[G#dim7] [Bb7] [D/A]  
 
 e|--------10-------10--(10)---10--|------7--------------------------|
 B|--------9-----------------------|----------7---8---7--------------|
 G|--------10------------10--------|----------------------7-------0--|
 D|----9--------8------------------|--7---------------7--------------|
 A|--------------------------------|---------------------------------|
 E|--------------------------------|--------------------------0------|

[A7] [D] [A] [D]  
 
 e|------------5p3p0-------0---3----------|-----------------------------|
 B|--------------------5---------------0--|--3---3---0---5---3---3------|
 G|---------------------------------------|--0-------0-------0---0------|
 D|--------0-----------------------0------|-----------------------------|
 A|---------------------------------------|--5---------------5---5------|
 E|----5-------------------5--------------|----------5------------------|

[D] [A/C#] [Bm] [D/A]  
 
 e|------------0------------0----------|------------------------0--(0)------|
 B|----3---5-------5--(5)-------5---3--|-(3)--------------------3--(3)------|
 G|------------------------------------|-------4-------0--(0)------------0--|
 D|------------4----------------0------|-----------4----------------4-------|
 A|----5---------------4---------------|--0---------------------------------|
 E|------------------------------------|-------------------5----------------|

[G] [D/F#] [A7]  
 
 e|--------------------0--------------|-----------3p0------0---3--(3)-----|
 B|--------3---5-----------5---3---5--|-(5)------------5---------------0--|
 G|----4-----------0------------------|-------0---------------------------|
 D|------------5---------------4------|-----------0----------------0------|
 A|-----------------------------------|-----------------------------------|
 E|----3---------------0--------------|--5-----------------5--------------|

[D] [A/C#] [Bm] [D/A]  
 
 e|------------0------------0----------|------------------------0--(0)------|
 B|----3---5-------5--(5)-------5---3--|-(3)--------------------3--(3)------|
 G|------------------------------------|-------4-------0--(0)------------0--|
 D|------------4----------------0------|-----------4----------------4-------|
 A|----5---------------4---------------|--0---------------------------------|
 E|------------------------------------|-------------------5----------------|

[E7/G#] [A7]  
 
 e|----------4-----------------------|---------------0--3p0-----0------|
 B|----------3---0---3--(3)-------3--|-------0--3p5----------5---------|
 G|----0h4-------4------------4------|--0h4-------------------------0--|
 D|-------------------------------0--|----------0----------------------|
 A|----------------------------------|---------------------------------|
 E|------4---------------4-----------|--5---------------5-------5------|

[G] [D7]  
 
 e|---------------------------------|-----------------------------------|
 B|--------5p3-------3---5----------|--3---5----------------3--(3)------|
 G|----4---------4---------------0--|--------------5--(5)------------0--|
 D|----------5---------------5------|----------4------------------------|
 A|---------------------------------|--5---------------5----------------|
 E|----3-------------3--------------|---------------------------5-------|

pb
G G#o7
 
 e|-------------------------------------|--4---4-------7------10---------|
 B|---(5b)6r5-------3-------3---5--(5)--|--3---3-------6------9-------0--|
 G|---------------------4---------------|--4---4-------7------10---------|
 D|-------------5-------------------5---|--3---3-------6------9----------|
 A|-------------------------------------|--------------------------------|
 E|----3----------------3---------------|--------------------------------|

[D] [A/C#] [Bm] [D/A]  
 
 e|------------0------------0----------|------------------------0--(0)------|
 B|----3---5-------5--(5)-------5---3--|-(3)--------------------3--(3)------|
 G|------------------------------------|-------4-------0--(0)------------0--|
 D|------------4----------------0------|-----------4----------------4-------|
 A|----5---------------4---------------|--0---------------------------------|
 E|------------------------------------|-------------------5----------------|

rake
[G] [A] [D] [A] [D]  
 
 e|--------------------0--------------|----------------------------|
 B|--------5---3-----------6---5---3--|-(3)-------0---5---3---3----|
 G|----4-----------0------------------|-------0---------------0----|
 D|------------5---------------0------|-----------------------4----|
 A|-----------------------------------|--5----------------5---5----|
 E|----3---------------5--------------|-----------5----------------|

[D] [D6sus4] [D] [D] [A/C#] [Bm7] [A]  
 
 e|----------10---7-------------------|--0-------------------------|
 B|----5/7------------10---7h8---7----|-------5----3---------------|
 G|----5/7-----------------7-----7----|----------------0--(0)---0--|
 D|----5/7-----------------7h9---7----|----------------------------|
 A|-----------------------------------|--5----4----0---------------|
 E|-----------------------------------|--------------------5-------|

[G] [A] [D] [A] [D]  
 
 e|--------------------0--------------|---------------------------|
 B|--------5---3-----------6---5---3--|-(3)------0---5---3---3----|
 G|----4-----------0------------------|------0---------------0----|
 D|------------5---------------0------|---------------------------|
 A|-----------------------------------|--5---------------5---5----|
 E|----3---------------5--------------|----------5----------------|

[D] [D6sus4] [D] [D] [A/C#] [Bm7] [A]  
 
 e|----------10---7-------------------|--0-------------------------|
 B|----5/7------------10---7h8---7----|-------5----3---------------|
 G|----5/7-----------------7-----7----|----------------0--(0)---0--|
 D|----5/7-----------------7h9---7----|----------------------------|
 A|-----------------------------------|--5----4----0---------------|
 E|-----------------------------------|--------------------5-------|

[G] [A] [D] [A] [D]  
 
 e|--------------------0--------------|---------------------------|
 B|--------5---3-----------6---5---3--|-(3)------0---5---3---3----|
 G|----4-----------0------------------|------0---------------0----|
 D|------------5---------------0------|---------------------------|
 A|-----------------------------------|--5---------------5---5----|
 E|----3---------------5--------------|----------5----------------|

[E9] [Eb7#9]  
 
 e|--------0--(0)-------0-----------|------0--(0)-------0-----------|
 B|----5------------5-------5--(5)--|--4------------4-------4--(4)--|
 G|--------7--(7)-------------------|------6--(6)-------------------|
 D|---------------------6-----------|-------------------5-----------|
 A|----7--------------------7--(7(--|--6------------6-------6--(6)--|
 E|---------------------------------|-------------------------------|

rake
[D7] [D/F#] [G] [A] [D]  
 
 e|--------0--(0)-------0---0------------|-----------------------------|
 B|----3------------3---------3----------|-----------------------------|
 G|--------5--(5)---------------0--------|-----------------------------|
 D|-------------------------------4------|-----------------------------|
 A|----5------------5---5-----------5----|------------------0---4---5--|
 E|-----------------------------------0--|--3-----4-----5--------------|

[Dmaj7/A]  
 
 e|---------------0-----(0)------|
 B|---------------0-----(0)------|
 G|---------------0-----(0)------|
 D|---------------4-----(4)------|
 A|---(5)---------5-----(5)------|
 E|---------------5-----(5)------|

/ slide up
\ slide down
h hammer-on
p pull-off
mu mute
pb pre-bend
co cut off
pr partial release
bss bend slightly sharp
~~ vibrato
===================================================================== 01 August 2011

Important: The song above is NOT stored on the Chordie server. The original song is hosted at www.guitaretab.com. Chordie works as a search engine and provides on-the-fly formatting. Chordie does not index songs against artists'/composers' will. To remove this song please click here.

Text color:
Chord color:
Chord grids: 
Font size:    
Page size: 

A A/C# A7 Bb7 Bm Bm7 D D/F# D6sus4 D7 Dmaj7/A E E7/G# E9 Eb7#9 G G#dim7
Rate #1 of 1 versions

Login - add to songbook

SHARE PAGE  



You need to log in to post comments