Guitar Tabs, Chords and Lyrics
Server problems seems to be fixed. Chordie has been experiencing problems with songs disappearing. These issues now seems to be fixed, but still verifying the fix. If you find anything strange, please email admin@chordie.com.


All You Wanted  Michelle Branch

Listen carefully to the song to figure out the strumming.
You have to listen most carefully to the 2nd part of each Verse!
(It's a different strumming and sometimes a different bar than before)
 
 --- CAPO on 1ST FRET ---

_____________________________________________________________________________
Intro:
[Em7] [Dsus] [Cadd9] [G]  
 
 e:|------------------------------------------------|
 B:|-------3----------3----------3------------4-2---|
 G:|---------0------2---2------0---0----------------|
 D:|-----2--------0------------------------0--------| 2x
 A:|------------------------3-----------------------|
 E:|---0--------------------------------3-----------|

_____________________________________________________________________________
Verse 1:
[Em7] [Dsus] [Cadd9] [G]  
 
 e:|------------------------------------------------|
 B:|-------3----------3----------3------------4-2---|
 G:|---------0------2---2------0---0----------------|
 D:|-----2--------0------------------------0--------| 4x
 A:|------------------------3-----------------------|
 E:|---0--------------------------------3-----------|

[Dsus]  
 
 e:|---3~--------------3-------|
 B:|---3~----------------3-----|
 G:|---2~------------2-----2---|
 D:|---0~----------0-----------|
 A:|---------------------------|
 E:|---------------------------|

[Em7] [Dsus] [Cadd9] [G]  
 
 e:|------------------------------------------------|
 B:|-------3----------3----------3------------4-2---|
 G:|---------0------2---2------0---0----------------|
 D:|-----2--------0------------------------0--------| 4x
 A:|------------------------3-----------------------|
 E:|---0--------------------------------3-----------|

[Dsus]  
 
 e:|---3~----------------------| e:|------------------------|
 B:|---3~----------------------| B:|--12/10-10/8-8/7-7/5--5-|
 G:|---2~----------------------| G:|------------------------|
 D:|---0~----------------------| Leadguitar-Part: D:|------------------------|
 A:|---------------------------| A:|------------------------|
 E:|---------------------------| E:|------------------------|

_____________________________________________________________________________
Chorus:
[Em] [C] [G] [D] 
 
 e:|----------------------------------------|
 B:|----------------------------------------|
 G:|------------5-5-5-5-----------7-7-7-7---|
 D:|---2-2-2-2--5-5-5-5--5-5-5-5--7-7-7-7---| 4x
 A:|---2-2-2-2--3-3-3-3--5-5-5-5--5-5-5-5---|
 E:|---0-0-0-0-----------3-3-3-3------------|

Interlude:
(Carefully, the RIFF CHANGES!!!)
[Em7] [Dsus] [Cadd9] [G]  
 
 e:|----------------------------------------------------|
 B:|-------3-------------3---------3--------------4-2---|
 G:|-----0---0---0-----2---2-----0---0---0--------------|
 D:|-----------2-----0-----------------2--------0-------| 1x
 A:|---------------------------3------------------------|
 E:|---0-------------------------------------3----------|

_____________________________________________________________________________
Verse 2:
-Now another Guitar could play the chords above the tabs!
[Em7] [Dsus] [Cadd9] [G]  
 
 e:|----------------------------------------------------|
 B:|-------3-------------3---------3--------------4-2---|
 G:|-----0---0---0-----2---2-----0---0---0--------------|
 D:|-----------2-----0-----------------2--------0-------| 4x
 A:|---------------------------3------------------------|
 E:|---0-------------------------------------3----------|

[Dsus]  
 
 e:|---3~------------|
 B:|---3~------------|
 G:|---2~------------|
 D:|---0~------------|
 A:|-----------------|
 E:|-----------------|

_____________________________________________________________________________
Chorus:
[Em] [C] [G] [D] 
 
 e:|----------------------------------------|
 B:|----------------------------------------|
 G:|------------5-5-5-5-----------7-7-7-7---|
 D:|---2-2-2-2--5-5-5-5--5-5-5-5--7-7-7-7---| 4x
 A:|---2-2-2-2--3-3-3-3--5-5-5-5--5-5-5-5---|
 E:|---0-0-0-0-----------3-3-3-3------------|

_____________________________________________________________________________
Bridge:
Rhythmguitar-Part:
[C] All you want[D]ed was somebody who cares
[C] If you nee[D]d me you know I'll be there
[Cadd9] [G] [D] Oh.[G].. [D/F#] ... [D/F#] ..yeah!
Leadguitar-Part:
[C] [D] [C] [D] [Cadd9] [G] [D] [G] [D/F#]  
 
 e:|---------------------------------------------------------------|
 B:|---5---7---8---7------12--10--9--7--5-----5--7--8---7-5/7-5~---|
 G:|---------------------------------------------------------------|
 D:|---------------------------------------------------------------|
 A:|---------------------------------------------------------------|
 E:|---------------------------------------------------------------|

_____________________________________________________________________________
Chorus:
[Em] [C] [G] [D] 
 
 e:|----------------------------------------|
 B:|----------------------------------------|
 G:|------------5-5-5-5-----------7-7-7-7---|
 D:|---2-2-2-2--5-5-5-5--5-5-5-5--7-7-7-7---| 10x
 A:|---2-2-2-2--3-3-3-3--5-5-5-5--5-5-5-5---|
 E:|---0-0-0-0-----------3-3-3-3------------|

Note: You can fill in your own Solo-Parts at this place! Be creative!
_____________________________________________________________________________
End:
[Em7] [Dsus] [Cadd9] [G]  
 
 e:|----------------------------------------------------|
 B:|-------3-------------3---------3--------------4-2---|
 G:|-----0---0---0-----2---2-----0---0---0--------------|
 D:|-----------2-----0-----------------2--------0-------| 3 1/2x
 A:|---------------------------3------------------------| (End after the
 E:|---0-------------------------------------3----------| "Em7-Part"

on Cadd9!)
_____________________________________________________________________________
LYRICS:
( The dashes are there to show whats e.g. the verse / the chorus / ... )
I wanted to be like you
I wanted everything
So I tried to be like you
And I got swept away
I didn't know that it was so cold
And you needed someone to show you the way
So I took your hand and we figured out
That when the tide comes I'd take you away
 
 - - - - - - - - - - - - - - - - - - - - - - 

If you want to
I can save you
I can take you away from here
So lonely inside
So busy out there
And all you wanted was somebody who cares
 
 - - - - - - - - - - - - - - - - - - - - - -

I'm sinking slowly
So hurry hold me
Your hand is all I have
To keep me hanging on
Please can you tell me
So I can finally see
Where you go
When you're gone
 
 - - - - - - - - - - - - - - - - - - - - - -

If you want to
I can save you
I can take you away from here
So lonely inside
So busy out there
And all you wanted was somebody who cares
 
 - - - - - - - - - - - - - - - - - - - - - -

All you wanted was somebody who cares
If you need me you know I'll be there
Oh, yeah
 
 - - - - - - - - - - - - - - - - - - - - - -

If you want to
I can save you
I can take you away from here
So lonely inside
So busy out there
And all you wanted was somebody who cares
If you want to
I can save you
I can take you away from here
So lonely inside
So busy out there
And all you wanted was somebody who cares
 
 - - - - - - - - - - - - - - - - - - - - - - 

Please can you tell me
So I can finally see
Where you go when you're gone
_____________________________________________________________________________
That's it, enjoy!
I hope there are no mistakes, but I'm not sure!
I'd be grateful if you write comments and/or corrections! :)

Important: The song above is NOT stored on the Chordie server. The original song is hosted at www.guitaretab.com. Chordie works as a search engine and provides on-the-fly formatting. Chordie does not index songs against artists'/composers' will. To remove this song please click here.

Text color:
Chord color:
Chord grids: 
Font size:    
Page size: 

C Cadd9 D D/F# Dsus Em Em7 G
Rate #1 of 12 versions

Login - add to songbook

SHARE PAGE  




You need to log in to post comments