Guitar Tabs, Chords and Lyrics
Server problems seems to be fixed. Chordie has been experiencing problems with songs disappearing. These issues now seems to be fixed, but still verifying the fix. If you find anything strange, please email admin@chordie.com.


Wait Here  Mick Flannery

Song: Wait Here
Artist: Mick Flannery
Album: White Lies
THE SONG IS MOSTLY CHORDS BUT THE VIOLIN ARRANGEMENT
HAS BEEN ADDED IF YOUR PLAYING WITH SOMEONE ELSE......
havent put in the elctric guitar bits
cos i simply couldn work them all out!!!!!! sorry.....
feel free to comment/rate/critise/question or even worse CORRECT!!!!...
EADGBe
F#5- 244xxx
[F#m-]D#5- [244222]x577xx
D - x5777x or xx0232 (if you want to use it for the chorus)
during verse and interlude F#m sounds better like 2442xx
(just stating my opinion)
 
 ------------------------------------------------------------------------

INTRO:
[F#5] [F#m] [D5] [D] [F#5] [F#m] [D5] [D] [F#5] [F#m] [D5] [D]  
 
 |---------------------|---------------------|----------------------|
 |---------------------|---------------------|----------------------|
 |---------------------|---------------------|----------------------|
 |-----4~-------0--0-0-|-----4~--(0)---0---0-|-----4~--(0)---0--0-0-|
 |-----------5~--------|-----------5~--------|------------5~--------|
 |--2------------------|--2------------------|--2-------------------|

[F#5] [F#m] [D5] [D] [F#5] [F#m] [D5] [D] [F#5]  
 
 |--------------------|---------------------|--------|
 |--------------------|---------------------|--------|
 |--------------------|---------------------|--------|
 |-----4~--(0)--0---0-|-----4~--(0)--0--0-0-|-----4~~|
 |-----------5~-------|-----------5~--------|--------|
 |--2-----------------|--2------------------|--2-----|

violin arrangement......this enters after 2nd bar of the intro above
 
 |----------------|----------------|----------------|-----------------|
 |----------------|----------------|----------------|-----------------|
 |-------2--------|-------2--------|-------2--------|-----------------|
 |-----4---3------|-----4---3------|-----4---3------|---4~~-----7~~---|
 |---4--------5---|---4--------5---|---4--------5---|-----------------|
 |----------------|----------------|----------------|-----------------|

VErse
[F#5]F15 s[F#m]cream c[D5]ross the s[D]ky,
[F#5]Lets its g[F#m]uided m[D5]issile f[D]ly,
[F#5]It ploughs [F#m]into a m[D5]arket squ[D]are,
[F#5]One hundred [F#m]roses t[D5]ake the a[D]ir,
[F#5]I know you didn?t [F#m]know,
[D5]Know you didn?t k[D]now,
[F#5]Nobody told [F#m]you so.
[F#5] [F#m] [D5] [D] [F#5] [F#m] [D5] [D]  
 
 |------------------|-----------------|
 |------------------|-----------------|
 |-4~-----2---------|-------2---------|
 |------4----3------|-----4----3------|
 |----4---------5---|---4--------5----|
 |------------------|-----------------|

VERSE
Goona [F#5]lay that ch[F#m]ild d[D5]own at your f[D]eet,
[F#5]Watch her b[F#m]urn now, [D5]watch her sc[D]ream,
[F#5]When she?s [F#m]done there?s [D5]plenty m[D]ore,
[F#5]Her brother?s [F#m]waiting [D5]at the d[D]oor,
[F#5]I know you didn?t [F#m]know,
[D5]Know you didn?t k[D]now,
[F#5]Nobody told [F#m]you so.
[F#5] [F#m] [D5] [D] [F#5] [F#m] [D5] [D]  
 
 |------------------|-----------------|
 |------------------|-----------------|
 |-4~-----2---------|-------2---------|
 |------4----3------|-----4----3------|
 |----4---------5---|---4--------5----|
 |------------------|-----------------|

CHorus
[F#m]Wait here, [D]wait here,
[E]I thought I heard the g[A]round a groanin?,
[F#m]Wait here, [D]wait here,
[E]I?m goin into t[A]own to warn ?em,
[F#m]All I did f[D]ind upon my w[E]ay
Was hell?s own g[A]ates had opened,
[F#m]For what it?s w[D]orth, I?m pretty s[E]ure,
That it?s for y[A]ou they?re comin?.
INTERLUDE
[F#5] [F#m] [D5] [D] [F#5] [F#m] [D5] [D] [F#5] [F#m] [D5] [D] [F#5] [F#m] [D5] [D]  
 
 |-------------|-------------------|-------------|---------------|
 |-------------|-------------------|-------------|---------------|

|---11~~~~~~~~~~~~~~~~~~~~~~~~~~~~~~~~~~~~~~~~~~~~~~~~~~~~~~~~~~|
 
 |-------------|--(WITH VOLUME SWELLS)-----------|---------------|
 |-------------|-------------------|-------------|---------------|
 |-------------|-------------------|-------------|---------------|

VERSE
[F#5]Big ol? h[F#m]at on a [D5]little [D]man,
[F#5]Scrubbin? blood st[F#m]ains f[D5]rom his h[D]ands,
[F#5]You gotta get[F#m] ?em, [D5]get ?em f[D]ast,
[F#5]Freedom truck is [F#m]little [D5]low on g[D]as,
[F#5]I know you had to [F#m]go,
[D5]Know you had to g[D]o,
[F#5]Daddy done told [F#m]you so.
[F#5] [F#m] [D5] [D] [F#5] [F#m] [D5] [D]  
 
 |-----------------|-----------------|
 |-----------------|-----------------|
 |-------2---------|-------2---------|
 |-----4----3------|-----4----3------|
 |---4---------5---|---4---------5---|
 |-----------------|-----------------|

VERSE
[F#5]Oil that ch[F#m]ainsaw [D5]up aga[D]in,
[F#5]Go on and fuck th[F#m]is earth up at [D5]both en[D]ds,
[F#5]It?s mother [F#m]nature?s ch[D5]esty c[D]ough,
[F#5]One o? these da[F#m]ys she?s gonna sh[D5]ake us o[D]ff,
[F#5]I know you didn?t [F#m]know,
[D5]Know you didn?t k[D]now,
[F#5]Nobody told [F#m]you so.
[F#5] [F#m] [D5] [D] [F#5] [F#m] [D5] [D]  
 
 |-----------------|-----------------|
 |-----------------|-----------------|
 |-------2---------|-------2---------|
 |-----4----3------|-----4----3------|
 |---4---------5---|---4---------5---|
 |-----------------|-----------------|

CHORUS
[F#m]Wait here, [D]wait here,
[E]I thought I heard the gr[A]ound a groanin?,
[F#m]Wait here, [D]wait here,
[E]I?m goin into t[A]own to warn ?em,
[F#m]All I did f[D]ind upon my w[E]ay
Was hell?s own g[A]ates had opened,
[F#m]For what it?s w[D]orth, I?m pretty s[E]ure,
That it?s for y[A]ou they?re comin?....
*repeat chorus (havin what mick says exactly)
[F#m] [D] [E] [A]  
 
 |------------------------------|-----------------------------|
 |---14----14-----15----15------|--12----12-----14-12---------|
 |------14----14-----16----16---|-----14----14--------14-13---|
 |------------------------------|-----------------------------|
 |------------------------------|-----------------------------|
 |------------------------------|-----------------------------|

[F#m] [D] [E] [A]  
 
 |------------------------------|-----------------------------|
 |---14----14-----15----15------|--12----12-----14-12---------|
 |------14----14-----16----16---|-----14----14--------14-13---|
 |------------------------------|-----------------------------|
 |------------------------------|-----------------------------|
 |------------------------------|-----------------------------|

SOLO+ OUTRO;
F#5 F#m D5 D (REPEAT several times)
finish on F#m
 
 ----------------------------------------------------------------------------

ARRANGEMENT OF WHAT THE VIOLIN PLAYS DURING THE CHORUS
(NEED HEAVY SUSTAIN TO MAKE IT FIT like in the album version)
[F#m] [D] [E] [A] [F#m] [D] [E] [A]  
 
 |--------------|----------------|--------------|----------------|
 |--------------|----------------|--------------|----------------|
 |---6~----7~---|---4~---6~--4/2-|---6~----7~---|---4~---6~--4/2-|
 |--------------|----------------|--------------|----------------|
 |--------------|----------------|--------------|----------------|
 |--------------|----------------|--------------|----------------|

[F#m] [D] [E] [A] [F#m] [D] [E] [A] [F#5]  
 
 |--------------|--------------------|--------------|-----------------|-----|
 |--14~----15~--|---------14~--------|--14~----15~--|-------14~-------|-----|
 |--------------|--16~--------16-14--|--------------|--16~------16-14-|-/11-|
 |--------------|--------------------|--------------|-----------------|-----|
 |--------------|--------------------|--------------|-----------------|-----|
 |--------------|--------------------|--------------|-----------------|-----|


Important: The song above is NOT stored on the Chordie server. The original song is hosted at www.guitaretab.com. Chordie works as a search engine and provides on-the-fly formatting. Chordie does not index songs against artists'/composers' will. To remove this song please click here.

Text color:
Chord color:
Chord grids: 
Font size:    
Page size: 

A D D5 E F#5 F#m
Rate #1 of 3 versions

Jango Player

Login - add to songbook

SHARE PAGE  




You need to log in to post comments