Guitar Tabs, Chords and Lyrics
Major upgrade!! After one year development the new version of Chordie is now online! Please give feedback.


Taurus 3  Mike Oldfield

TAURUS 3
GUITAR
Play with capo 6
PLAY WITH CAPO 6
E E E E E E E E E E E E Q E E
 
 E||----------------------------------------|--------------------------|
 B||----------------------------------------|-----5--6--8---L----6--5--|
 G||-------------------------------2--4--5--|--7-----------------------|
 D||----------------------2--3--5-----------|--------------------------|
 A||--3----------------5--------------------|--------------------------|
 E||----------------------------------------|--------------------------|

E E E E E E E E S S E E E E E Q
 
 --------------------------|----------------------------|
 --3--5--6--------3--------|----------------------------|
 -----------4--5-----4--5--|----------------------------|
 --------------------------|--3h-5p-3--2--3-----2-------|
 --------------------------|-----------------5-----3----|
 --------------------------|----------------------------|

E E E E E E E E E E E E Q E E
 
 --------------------------|--------------------------|
 --------------------------|-----5--6--8---L----6--5--|
 -----------------2--4--5--|--7-----------------------|
 --------2--3--5-----------|--------------------------|
 --3--5--------------------|--------------------------|
 --------------------------|--------------------------|

|--3--|
E E E E E E E E S S E Q Q E E E
 
 --------------------------|-------------------------------||
 --3--5--6--------3--------|-------------------------------||
 -----------4--5-----4--5--|----------------5-------------*||
 --------------------------|--3h-5p-3--2------------------*||
 --------------------------|---------------------------2---||
 --------------------------|---------------------3--5------||

S S E Q Q Q E E E E E E E E
 
 --------------------------|--3-----------------------|
 --------------------------|-----5-----6--3-----------|
 ----------------5---------|--------5--------4--5--2--|
 --3h-5p-3--2--------------|--------------------------|
 --------------------------|--------------------------|
 --------------------------|--------------------------|

S S E E E E E E E E E E E E E E E E E E E Q Q
 
 ------------------------3--|--L-----------------------|------------------------|
 ---------------------------|-----5-----6--3-----------|--1-----3-----5---------|
 ---------------------------|--------5--------4--5--0--|-----0-----0-------0----|
 --3-5-3--2--3-----2--------|--------------------------|--2-----3-----5---------|
 ---------------5-----3-----|--------------------------|------------------------|
 ---------------------------|--------------------------|------------------------|

E E E E E E E E S S E E E E E E E
 
 --3-----------------------|------------------------3--|
 -----5-----6--3-----------|---------------------------|
 --------5--------4--5--2--|---------------------------|
 --------------------------|--3-5-3--2--3-----2--------|
 --------------------------|---------------5-----3-----|
 --------------------------|---------------------------|

E E E E E E E E E E E E Q Q [C7M]Q E E E E Q
 
 --L-----------------------|------------------------|--0---------------------|
 -----5-----6--3-----------|--1-----3-----5---------|----------------0-------|
 --------5--------4--5--0--|-----0-----0------------|--0-------0-------------|
 --------------------------|--2-----3-----5---------|-------2-----------2----|
 --------------------------|------------------------|-------------3----------|
 --------------------------|------------------------|------------------------|

[Fm]Q E E E E Q [C]Q E E E E Q E E Q E E Q
 
 --1-------------1-------|--0---------------------|-------------------------|
 ----------1-------------|----------1-------------|--------------------1----|
 --1----------1----------|-------------------2----|-----0-------0h--2-------|
 -------0-----------0----|-------2----------------|-------------------------|
 ------------------------|--3----------3-----3----|--------3----------------|
 ------------------------|------------------------|-------------------------|

[C7M]Q E E E E Q [Fm]Q E E E E Q Q. Q. Q
 
 --0---------------------|--1---------------------|--0------1------3----|
 ----------------0-------|----------------1-------|---------------------|
 ----------0-------------|----------1-------------|---------1------3----|
 -------2-----------2----|-------------3----------|---------------------|
 --3----------3----------|-------3-----------3----|--3------------------|
 ------------------------|--1---------------------|---------------------|

Q Q. Q. [C7M]Q E E E E Q [Fm]Q E E E E Q
 
 --L----1------3------|--0---------------------|--1-------------1-------|
 ---------------------|----------------0-------|----------1-------------|
 --L----1------3------|--0-------0-------------|--1----------1----------|
 ---------------------|-------2-----------2----|-------0-----------0----|
 ---------------------|-------------3----------|------------------------|
 ---------------------|------------------------|------------------------|

[C]Q E E E E Q E E Q E E Q [C7M]Q E E E E Q
 
 --0---------------------|-------------------------|--0---------------------|
 ----------1-------------|--------------------1----|----------------0-------|
 -------------------2----|-----0-------0h--2-------|--0-------0-------------|
 -------2----------------|-------------------------|-------2-----------2----|
 --3----------3-----3----|--------3----------------|-------------3----------|
 ------------------------|-------------------------|------------------------|

[Fm]Q E E E E Q Q. Q. Q W
 
 --1-------------1-------|--0------------------|-------------------|
 ----------1-------------|---------3------1----|-------------------|
 --1----------1----------|----------------0----|-------------------|
 -------0-----------0----|----------------2----|-------------------|
 ------------------------|--3------2------3----|-------------------|
 ------------------------|---------------------|-------------------|

E E E E E E E E Q Q Q Q W
 
 ----------8--10--12--10--8------|--------------8----10----|--12----------------|
 --10--12--------------------12--|--10----12---------------|--------------------|
 --------------------------------|-------------------------|--------------------|
 --------------------------------|-------------------------|--------------------|
 --------------------------------|-------------------------|--------------------|
 --------------------------------|-------------------------|--------------------|

W E E E E E E E E Q Q Q Q
 
 -------------------|----------8--10--12--10--8------|--------------8----10----|
 -------------------|--10--12--------------------12--|--10----12---------------|
 -------------------|--------------------------------|-------------------------|
 -------------------|--------------------------------|-------------------------|
 -------------------|--------------------------------|-------------------------|
 -------------------|--------------------------------|-------------------------|

W W E E E E E E E E
 
 --------------------|-------------------|----------8--10--12--10--8------|
 --10----------------|-------------------|--10--12--------------------12--|
 --------------------|-------------------|--------------------------------|
 --------------------|-------------------|--------------------------------|
 --------------------|-------------------|--------------------------------|
 --------------------|-------------------|--------------------------------|

Q Q Q Q W W
 
 --------------8----10----|--12----------------|-------------------|
 --10----12---------------|--------------------|-------------------|
 -------------------------|--------------------|-------------------|
 -------------------------|--------------------|-------------------|
 -------------------------|--------------------|-------------------|
 -------------------------|--------------------|-------------------|

E E E E E E E E Q Q Q Q W
 
 ----------8--10--12--10--8------|--------------8----10----|--------------------|
 --10--12--------------------12--|--10----12---------------|--10----------------|
 --------------------------------|-------------------------|--------------------|
 --------------------------------|-------------------------|--------------------|
 --------------------------------|-------------------------|--------------------|
 --------------------------------|-------------------------|--------------------|

W E E E E E E E E E E E E E E E E
 
 -------------------|--0--0--1--1--3--3--0--0--|--0--0--1--1--3--3--0--0--|
 -------------------|--1--1--1--1--0--0--1--1--|--1--1--1--1--0--0--1--1--|
 -------------------|--0--0--2--2--0--0--0--0--|--0--0--2--2--0--0--0--0--|
 -------------------|--2--2--3--3--0--0--2--2--|--2--2--3--3--0--0--2--2--|
 -------------------|--3--3--3--3--2--2--3--3--|--3--3--3--3--2--2--3--3--|
 -------------------|--------------3--3--------|--------------3--3--------|

[E] [E] [E] [E] [E] [E] [E] [E] [E] [E] [E] [E] [E] [E] [E] [E]  
 
 --0--0--1--1--3--3--0--0--|--0--0--1--1--3--3--0--0--|
 --1--1--1--1--0--0--1--1--|--1--1--1--1--0--0--1--1--|
 --0--0--2--2--0--0--0--0--|--0--0--2--2--0--0--0--0--|
 --2--2--3--3--0--0--2--2--|--2--2--3--3--0--0--2--2--|
 --3--3--3--3--2--2--3--3--|--3--3--3--3--2--2--3--3--|
 --------------3--3--------|--------------3--3--------|

[E] [E] [E] [E] [E] [E] [E] [E] [E] [E] [E] [E] [E] [E] [E] [E]  
 
 --0--0--1--1--3--3--0--0--|--0--0--1--1--3--3--0--0--|
 --1--1--1--1--0--0--1--1--|--1--1--1--1--0--0--1--1--|
 --0--0--2--2--0--0--0--0--|--0--0--2--2--0--0--0--0--|
 --2--2--3--3--0--0--2--2--|--2--2--3--3--0--0--2--2--|
 --3--3--3--3--2--2--3--3--|--3--3--3--3--2--2--3--3--|
 --------------3--3--------|--------------3--3--------|

E E E E E E E E E E E E E E Q
 
 --0--0--1--1--3--3--0--0--|--0--0--1--1--3--3--0----||
 --1--1--1--1--0--0--1--1--|--1--1--1--1--0--0--1----||
 --0--0--2--2--0--0--0--0--|--0--0--2--2--0--0--0----||
 --2--2--3--3--0--0--2--2--|--2--2--3--3--0--0--2----||
 --3--3--3--3--2--2--3--3--|--3--3--3--3--2--2--3----||
 --------------3--3--------|--------------3--3-------||

Duration Legend
 
 ---------------

W - whole
H - half
Q - quarter
E - 8th
S - 16th
T - 32nd
X - 64th
. - note dotted
|-n-| - n-tuplets
Tablature Legend
 
 ----------------

L - tied note
x - dead note
g - grace note
(n) - ghost note
> - accentuded note
NH - natural harmonic
AH - artificial harmonic
TH - tapped harmonic
SH - semi harmonic
PH - pitch harmonic
h - hammer on
p - pull off
b - bend
br - bendRelease
pb - preBend
pbr - preBendRelease
brb - bendReleaseBend
\n/ - tremolo bar dip
\n - tremolo bar dive
-/n - tremolo bar Release up
/n\ - tremolo bar inverted dip
/n - tremolo bar return
-\n - tremolo bar Release down
S - shift slide
s - legato slide
/ - slide into from below or out of upwards
\ - slide into from above or out of downwards
~ - vibrato
W - wide vibrato
tr - trill
TP - tremolo picking
T - tapping
S - slap
P - pop
< - fade in
^ - brush up
v - brush down

Important: The song above is NOT stored on the Chordie server. The original song is hosted at www.guitaretab.com. Chordie works as a search engine and provides on-the-fly formatting. Chordie does not index songs against artists'/composers' will. To remove this song please click here.

Text color:
Chord color:
Chord grids: 
Font size:    
Page size: 

C E Fm
Rate #1 of 1 versions

Jango Player

Login - add to songbook

SHARE PAGE  



You need to log in to post comments