Guitar Tabs, Chords and Lyrics
Server problems seems to be fixed. Chordie has been experiencing problems with songs disappearing. These issues now seems to be fixed, but still verifying the fix. If you find anything strange, please email admin@chordie.com.


Muse   Mike Oldfield

 
 ---------------------------------------------------------------------

 


 Chords & Structure


 

 
 ---------------------------------------------------------------------

 


 


 Intro


 | Em | Em | Em | Em |


 


 Part 1


 | Em | C | D | C |


 | Em | Bm | C D | Em |


 | Bm | C | D | C |


 | C | Bm | C D | Em |


 


 Part 2 (same as part 1)


 | Em | C | D | C |


 | Em | Bm | C D | Em |


 | Bm | C | D | C |


 | C | Bm | C D | Em |


 Part 3


 | Em | Bm | C | D |


 | C | Bm | C D | Em |


 | Em | Bm | C | D |


 | C | Bm | C D | Em |


 


 [End]| Em | C | D | C |


 | Em | Bm | C D | Em |


 | Em |


 


 

 
 ---------------------------------------------------------------------

 


 Guitar 1


 

 
 ---------------------------------------------------------------------

 


 Intro


 . . . . . . . . . . . . . . . .


 

 
 |----------------|----------------|----------------|----------------|
 |----------------|----------------|----------------|----------------|
 |----------------|----------------|----------------|----------------|
 |----------------|----------------|----------------|----------------|
 |----------------|----------------|----------------|----------------|
 |----------------|----------------|----------------|----------------|

 


 Part 1


 . . . . . . . . . . . . . . . .


 

 
 |------------7-5-|7---0-------2-3-|5---------------|------5-5/7-7\--|
 |----------------|----------------|----1-------3-5-|3---------------|
 |----------------|----------------|----------------|----------------|
 |----------------|----------------|----------------|----------------|
 |----------------|----------------|----------------|----------------|
 |----------------|----------------|----------------|----------------|

 


 


 . . . . . . . . . . . . . . . .


 

 
 |------------7-5-|7\--0-----0-2-3-|5---------------|------7-5-3-2---|
 |3-5-------------|----------------|----3-------5-7-|5---------------|
 |----------------|----------------|----------------|----------------|
 |----------------|----------------|----------------|----------------|
 |----------------|----------------|----------------|----------------|
 |----------------|----------------|----------------|----------------|

 


 


 . . . . . . . . . . . . . . . .


 

 
 |0-----------2-3-|5-----------0-2-|3---------------|------5-5/7-7\--|
 |----------------|----3-----------|----1-------3-5-|3---------------|
 |----------------|----------------|----------------|----------------|
 |----------------|----------------|----------------|----------------|
 |----------------|----------------|----------------|----------------|
 |----------------|----------------|----------------|----------------|

 


 


 . . . . . . . . . . . . . . . .


 

 
 |-----------/7-5-|7\--0-----0-2-3-|5---------------|------7-5-3-2--2|
 |3-5-------------|----------------|----3-------5-7-|5---------------|
 |----------------|----------------|----------------|----------------|
 |----------------|----------------|----------------|----------------|
 |----------------|----------------|----------------|----------------|
 |----------------|----------------|----------------|----------------|

 


 


 Part 2 (same as part 1)


 . . . . . . . . . . . . . . . .


 

 
 |320---------7-5-|7---0---0-0-2-3-|5---------------|------5-5/7-7\--|
 |----------------|----------------|----1-------3-5-|3---------------|
 |----------------|----------------|----------------|----------------|
 |----------------|----------------|----------------|----------------|
 |----------------|----------------|----------------|----------------|
 |----------------|----------------|----------------|----------------|

 


 


 . . . . . . . . . . . . . . . .


 

 
 |-----------/7-5-|7\--0-------2-3-|5---------------|------7-5-------|
 |3-5-------------|----------------|----3-------5-7-|5---------8-7\--|
 |----------------|----------------|----------------|----------------|
 |----------------|----------------|----------------|----------------|
 |----------------|----------------|----------------|----------------|
 |----------------|----------------|----------------|----------------|

 


 


 . . . . . . . . . . . . . . . .


 

 
 |------------2-3-|5-------------2-|3---------------|------5-5/7-7\--|
 |5---------------|----3-----3-5---|----1-------3-5-|3---------------|
 |----------------|----------------|----------------|----------------|
 |----------------|----------------|----------------|----------------|
 |----------------|----------------|----------------|----------------|
 |----------------|----------------|----------------|----------------|

 


 


 . . . . . . . . . . . . . . . .


 

 
 |----------5/7-5-|7\--0---0-0-2-3-|5---------------|------7-5-------|
 |3-5-------------|----------------|----3-------5-7-|5---------8-7---|
 |----------------|----------------|----------------|----------------|
 |----------------|----------------|----------------|----------------|
 |----------------|----------------|----------------|----------------|
 |----------------|----------------|----------------|----------------|

 


 


 Part 3


 . . . . . . . . . . . . . . . .


 

 
 |------------0-2-|3---0---0-0-2-3/|5\--------------|------2-3---5/7-|
 |78--5-----------|----------------|----3-------5-7-|5---------------|
 |----------------|----------------|----------------|----------------|
 |----------------|----------------|----------------|----------------|
 |----------------|----------------|----------------|----------------|
 |----------------|----------------|----------------|----------------|

 


 


 . . . . . . . . . . . . . . . .


 

 
 |5-----------0-2-|3---0---0-0-2-3/|5\--------------|-----/7-5-3-2---|
 |----------------|----------------|----3-------5-7-|5---------------|
 |----------------|----------------|----------------|----------------|
 |----------------|----------------|----------------|----------------|
 |----------------|----------------|----------------|----------------|
 |----------------|----------------|----------------|----------------|

 


 


 . . . . . . . . . . . . . . . .


 

 
 |0-----------0-2-|3---0---0-0-2-3-|5---------------|------2-3---5/7-|
 |----------------|----------------|----3-------5-7-|5---------------|
 |----------------|----------------|----------------|----------------|
 |----------------|----------------|----------------|----------------|
 |----------------|----------------|----------------|----------------|
 |----------------|----------------|----------------|----------------|

 


 


 . . . . . . . . . . . . . . . .


 

 
 |5-----------0-2-|3---0---0-0-2-3-|3/5-------------|------7-5-3-2--2|
 |----------------|----------------|----3-------5-7-|5---------------|
 |----------------|----------------|----------------|----------------|
 |----------------|----------------|----------------|----------------|
 |----------------|----------------|----------------|----------------|
 |----------------|----------------|----------------|----------------|

 


 


 [End]. . . . . . . . . . . . . . . .


 

 
 |32--0---0---7-5-|7---0---0-0-2-3-|5---------------|------5-5/7-7---|
 |----------------|----------------|----1-------3-5-|3---------------|
 |----------------|----------------|----------------|----------------|
 |----------------|----------------|----------------|----------------|
 |----------------|----------------|----------------|----------------|
 |----------------|----------------|----------------|----------------|

 


 


 slower ...


 . . . . . . . . . . . . . . . .


 

 
 |----7-8-7-5-3-5-|/7--0---0-0-2-3-|5---------------|-----/7-5-3-2--2|
 |3-5-------------|----------------|----3-------5-7-|5---------------|
 |----------------|----------------|----------------|----------------|
 |----------------|----------------|----------------|----------------|
 |----------------|----------------|----------------|----------------|
 |----------------|----------------|----------------|----------------|

 


 


 . . . . .


 

 
 |32--0---0-------|
 |----------------|
 |----------------|
 |----------------|
 |----------------|
 |----------------|
 ---------------------------------------------------------------------

 


 Guitar 2


 

 
 ---------------------------------------------------------------------

 


 . . . . . . . . . . . . . . . .


 

 
 |--------0-------|0------0--------|------0---------|----------------|
 |----0-------0---|----0-------0---|----0-----------|--------0-------|
 |--0---0-------0-|------0-------0-|--0-----------0-|----0-----0-----|
 |2---------------|----------------|2-----------2---|--2---0-----2---|
 |----------------|----------------|----------2-----|2-------------2-|
 |----------------|----------------|--------0-------|----------------|

 


 


 . . . . . . . . . . . . . . . .


 

 
 |--------0-------|--------0-------|------2-2-------|----------------|
 |----0-------0---|----1-------1---|----3-----3-----|----0-1-0-------|
 |--0---0---0---0-|--0---0---0---0-|--2---------2---|--0-------2-----|
 |----------------|----------------|0-------------0-|------------2-4-|
 |----------------|3---------------|----------------||
 |0---------------|----------------|----------------|----------------|

 


 


 . . . . . . . . . . . . . . . .


 

 
 |----------------|----------------|------------0-2-|0-----0-------0-|
 |--------------0-|--------3-------|------1---------|----0-------0---|
 |0-----------0---|----4-------4---|----0-----2-----|--0-------0-----|
 |----2-----2-----|--4---4---4---4-|--2-----0-------|2-------2-------|
 |--------2-------|2---------------|3---------------|----------------|
 |----------------|----------------|----------------|----------------|

 


 


 . . . . . . . . . . . . . . . .


 

 
 |----------------|--------0-------|------2-2-------|----------------|
 |--------3-------|----1-------1---|----3-----3-----|----0-1-0-------|
 |----4-------4---|--0---0---0---0-|--2---------2---|--0-------2-----|
 |--4---4---4---4-|----------------|0-------------0-|------------2---|
 |2---------------|3---------------|----------------|3-------------4-|
 |----------------|----------------|----------------|----------------|

 


 . . . . . . . . . . . . . . . .


 

 
 |----------------|----------------|------------0-2-|0-------0-------|
 |--------1-------|--------3-------|------1---------|----0-------0---|
 |----0-------0---|----4-------4---|----0-----2-----|--0---0---0---0-|
 |--2---2---2---2-|--4---4---4---4-|--2-----0-------|2---------------|
 |3---------------|2---------------|3---------------|----------------|
 |----------------|----------------|----------------|----------------|

 


 


 . . . . . . . . . . . . . . . .


 

 
 |--------0-------|--------0-------|------2-2-------|----------------|
 |----0-------0---|----1-------1---|----3-----3-----|----0-1-0-------|
 |--0---0---0---0-|--0---0---0---0-|--2---------2---|--0-------2-----|
 |2---------------|----------------|0-------------0-|------------2-4-|
 |----------------|3---------------|----------------|3---------------|
 |----------------|----------------|----------------|----------------|

 


 


 . . . . . . . . . . . . . . . .


 

 
 |----------------|----------------|------------0-2-|0-----0-------0-|
 |--------------0-|--------3-------|------1---------|----0-------0---|
 |0-----------0---|----4-------4---|----0-----2-----|--0-------0-----|
 |----2-----2-----|--4---4---4---4-|--2-----0-------|2-------2-------|
 |--------2-------|2---------------|3---------------|----------------|
 |----------------|----------------|----------------|----------------|

 


 


 . . . . . . . . . . . . . . . .


 

 
 |----------------|--------0-------|------2-2-------|----------------|
 |--------3-------|----1-------1---|----3-----3-----|----0-1-0-------|
 |----4-------4---|--0---0---0---0-|--2---------2---|--0-------2-----|
 |--4---4---4---4-|----------------|0-------------0-|------------2---|
 |2---------------|3---------------|----------------|3-------------4-|
 |----------------|----------------|----------------|----------------|

 


 


 . . . . . . . . . . . . . . . .


 

 
 |----------------|----------------|------------0-2-|0-------0-------|
 |--------1-------|--------3-------|------1---------|----0-------0---|
 |----0-------0---|----4-------4---|----0-----2-----|--0---0---0---0-|
 |--2---2---2---2-|--4---4---4---4-|--2-----0-------|2---------------|
 |3---------------|2---------------|3---------------|----------------|
 |----------------|----------------|----------------|----------------|

 


 


 . . . . . . . . . . . . . . . .


 

 
 |--------0-------|----------------|--------0-------|------0-2-------|
 |----0-------0---|--------3-------|----1-------0---|----3-----3-----|
 |--0---0---0---0-|----4-------4---|--0---0---0---0-|--2---------2---|
 |2---------------|--4---4---4---4-|----------------|0-------------0-|
 |----------------|2---------------|3---------------|----------------|
 |----------------|----------------|----------------|----------------|

 


 


 . . . . . . . . . . . . . . . .


 

 
 |--------0-------|----------------|------------0-2-|0-------0-------|
 |----1-------1---|--------3-------|------1---------|----0-------0---|
 |--0---0---0---0-|----4-------4---|----0-----2-----|--0---0---0---0-|
 |----------------|--4---4---4---4-|--2-----0-------|2---------------|
 |3---------------|2---------------|3---------------|----------------|
 |----------------|----------------|----------------|----------------|

 


 


 . . . . . . . . . . . . . . . .


 

 
 |--------0-------|----------------|--------0-------|------0-2-------|
 |----0-------0---|--------3-------|----1-------0---|----3-----3-----|
 |--0---0---0---0-|----4-------4---|--0---0---0---0-|--2---------2---|
 |2---------------|--4---4---4---4-|----------------|0-------------0-|
 |----------------|2---------------|3---------------|----------------|
 |----------------|----------------|----------------|----------------|

 


 


 . . . . . . . . . . . . . . . .


 

 
 |--------0-------|----------------|------------0-2-|0-------0-------|
 |----1-------1---|--------3-------|------1---------|----0-------0---|
 |--0---0---0---0-|----4-------4---|----0-----2-----|--0---0---0---0-|
 |----------------|--4---4---4---4-|--2-----0-------|2---------------|
 |3---------------|2---------------|3---------------|----------------|
 |----------------|----------------|----------------|----------------|

 


 slower ...


 . . . . . . . . . . . . . . . .


 

 
 |--------0-------|--------0-------|------2-2-------|----------------|
 |----0-------0---|----1-------1---|----3-----3-----|----0-1-0-------|
 |--0---0---0---0-|--0---0---0---0-|--2---------2---|--0-------2-----|
 |----------------|----------------|0-------------0-|------------2-4-|
 |----------------|3---------------|----------------|3---------------|
 |0---------------|----------------|----------------|----------------|

 


 


 . . . . . . . . . . . . . . . .


 

 
 |----------------|----------------|------------0-2-|-----0----------|
 |--------------0-|--------3-------|------1---------|----0-----------|
 |0-----------0---|----4-------4---|----0-----2-----|---0------------|
 |----2-----2-----|--4---4---4---4-|--2-----0-------|--2-------------|
 |--------2-------|2---------------|3---------------|-2--------------|
 |----------------|----------------|----------------|0---------------|

 


 


 Like an echo


 . . . . .


 

 
 |-----0----------|
 |----0-----------|
 |---0------------|
 |--2-------------|
 |-2--------------|
 |0---------------|


Important: The song above is NOT stored on the Chordie server. The original song is hosted at www.guitaretab.com. Chordie works as a search engine and provides on-the-fly formatting. Chordie does not index songs against artists'/composers' will. To remove this song please click here.

This song is displayed as text-only. Transposing and tuning is only available for chordpro-songs.
Rate #2 of 4 versions

Jango Player

Login - add to songbook

SHARE PAGE  



You need to log in to post comments