Guitar Tabs, Chords and Lyrics
Major upgrade!! After one year development the new version of Chordie is now online! Please give feedback.


The Voyager  Mike Oldfield

Artist - Mike Oldfield
************************
Song - The Voyager
********************
Album - The Voyager
*********************
Tabbed By - Ayreon77
**********************
This song has a guess a bagpipe in it,
Mike plays guitar then the bagpipes come in alternating
throughout all the song.There are no guitar chord
but here are some you might find useful.
[Bm]SEC[F#m]TION[Bm] 1[A]
**********
 
 [---------------7--------|--h----------------7--------]
 [-7-----------7---10-9-7-|-7-8-7-----------7---10-9-7-]
 [---7-6---7-9------------|-------7-6---7-9------------]
 [-------9----------------|-----------9----------------] X2
 [------------------------|----------------------------]
 [------------------------|----------------------------]
 ----------------------------------------------------------

[D]SE[A]CT[G]IO[D]N [A]2
**********
00:44 h p
 
 [--------------|--------------------|---h---10--9-10-9----10------------]
 [-10--s--------|-----p--10-10-12-10-|-12-14------------12-----s---10-10-]
 [----9\11-9----|-9-11-9-------------|------------------------9\11-------]
 [-----------12-|--------------------|-----------------------------------]
 [--------------|--------------------|-----------------------------------]
 [--------------|--------------------|-----------------------------------]
 [------------|--------------|-----------------------]
 [--s---10-10-|-12--s--------|-------s---10-10-12-10-]
 [-9\11-------|----9\11-9----|------9\11-------------]
 [------------|-----------12-|-9-12------------------]
 [------------|--------------|-----------------------]
 [------------|--------------|-----------------------]

h p
 
 [---h---10--9-10-9----10--------]
 [-12-14------------12-----s-----]
 [------------------------9\11-9-]
 [-------------------------------]
 [-------------------------------]
 [-------------------------------]
 ----------------------------------------------------------

01:06
SECTION 1 X1
**********
 
 ----------------------------------------------------------

01:28
SECTION 2
**********
 
 ----------------------------------------------------------

01:50
PIANO - A D A
****** D G D
[Em] [A] [Em]  
[G] [A] [Bm]  
 
 ----------------------------------------------------------

02:35
SECTION 1 X4
**********
 
 ----------------------------------------------------------

03:19
PIANO
******
 
 ----------------------------------------------------------

03:41
SECTION 1 X4
**********
A simple Mike Oldfield track. Enjoy............

Important: The song above is NOT stored on the Chordie server. The original song is hosted at www.guitaretab.com. Chordie works as a search engine and provides on-the-fly formatting. Chordie does not index songs against artists'/composers' will. To remove this song please click here.

Text color:
Chord color:
Chord grids: 
Font size:    
Page size: 

A Bm D Em F#m G
Rate #1 of 2 versions

Jango Player

Login - add to songbook

SHARE PAGE  




You need to log in to post comments