Guitar Tabs, Chords and Lyrics
Major upgrade!! After one year development the new version of Chordie is now online! Please give feedback.


Nuclear  Mike Oldfield

Artist - Mike Oldfield
************************
Song - Nuclear
****************
Album - Man On The Rocks
**************************
Tabbed By - Ayreon77
**********************
C = 032013
 
 ----------------------------------------------------

VERSE 1
********
[Fm]Standing on the [C]edge of the [Fm]crater
Like the phorphets once [C]said
And the [Fm]ashes are [C]cold now
No more [Fm]bullets and the embers are [C]dead
[Bbm]Whispers in the [Fm]air tell the t[Bbm]ales
Of the brothers [Fm]gone
Deso[Bbm]lation
Deva[Fm]station
What a [C#]mess we made
When it all went [C]wrong
 
 ----------------------------------------------------

Verse 2
********
[Fm]Watching from the [C]edge of the [Fm]circus
For the games to [C]begin
Gladi[Fm]ators draw their [C]swords
From their [C#]ranks for arma[C]geddon
 
 ----------------Muted----------------------------------
 CHORUS [---------------]
 ******* [------------br-]
 Fm [---------10-12-]
 I'm nuclear [------10-------]
 C [-8-11----------]
 I'm wild [---------------]

Bbm C |
I'm breaking Up inside |
Fm |
A heart of broken glass----|
De[C]flied
Deep [Bbm]inside
The abandoning [C]child
 
 ----------------------------------------------------

VERSE 3
********
[Fm]Standing on the [C]edge of the [Fm]underworld
Looking at the [C]abyss
And I'm [Fm]hoping for some [C]miracle
To [Fm]breakout to escape from [C]all this
[Bbm]Whispers in the [Fm]air
Tell the [Bbm]tail of a life that's [Fm]gone
Deso[Bbm]lation
Deva[Fm]station
What a [C#]mess we made
When it all went [C]wrong
 
 ----------------------------------------------------

CHORUS
*******
 
 ----------------------------------------------------

03:17
SOLO
*****
 
 [------------------------------------|--------------|----|----------]
 [--------------------------b---brp---|----s---------|-br-|--s-------]
 [-10-13-10-13-10-13-10-13-12--12--10-|---5\10-13-12-|-5--|-5\10-8-6-]
 [------------------------------------|-6------------|----|----------]
 [------------------------------------|--------------|----|----------]
 [------------------------------------|--------------|----|----------]

[B]  
 
 [-------------br-|-------------------b--br--|-11-8--------|--------]
 [---------6-9-8--|---5-------5---6-8-8--8-6-|------9----8-|--------]
 [---5-6-8--------|-5---5---5---5------------|--------10---|--------]
 [-8--------------|-------5------------------|-------------|-5-5-5--]
 [----------------|--------------------------|-------------|--------]
 [----------------|--------------------------|-------------|--------]

03:40 C
 
 [-------------------------|---|---s---------------------b-]
 [-6-6-6-------------6-9-6-|-5-|-14\17-17-17-17---18-20-20-]
 [-------6-5---5-6-8-------|-5-|---------------------------]
 [-----------8-------------|-5-|---------------------------]
 [-------------------------|-3-|---------------------------]
 [-------------------------|---|---------------------------]
 ----------------------------------------------------

CHORUS
*******
Play this with the chorus above
03:53
 
 [-18-16-----b-]
 [-------20-20-]
 [-------------]
 [-------------]
 [-------------]
 [-------------]

04:12 04:18 04:26
 
 [----------------------------|-Muted----------|-------|-----------------]
 [------------s-------------b-|-------------br-|--b----|--b-----------br-]
 [-------12-13\15-13-12----15-|---------10-12--|-12-12-|-13-13-12-10-12--]
 [-14-15----------------15----|------10--------|-------|-----------------]
 [----------------------------|-8-11-----------|-------|-----------------]
 [----------------------------|----------------|-------|-----------------]
 ----------------------------------------------------

[Fm]Ohhhhhhhhh [C]
 
 [---------------b-]
 [--------------12-]
 [-----------------]
 [-----------------]
 [-----------------]
 [-----------------] 

| |
| |
 
 [-Muted-----------]
 [-------------b---]
 [---------10-12---]
 [------10---------]
 [-8-11------------]
 [-----------------]

[Bbm]Deep inside
 
 [--b----br---]
 [-13---13-11-]
 [------------]
 [------------]
 [------------]
 [------------]

The abandoning[C] child
 
 [-----b----]

[-13-13-13-] 
 
 [----------]
 [----------]
 [----------]
 [----------]

[Fm]  
ENJOY............

Important: The song above is NOT stored on the Chordie server. The original song is hosted at www.guitaretab.com. Chordie works as a search engine and provides on-the-fly formatting. Chordie does not index songs against artists'/composers' will. To remove this song please click here.

Text color:
Chord color:
Chord grids: 
Font size:    
Page size: 

B Bbm C C# Fm
Rate #1 of 1 versions

Jango Player

Login - add to songbook

SHARE PAGE  




You need to log in to post comments