Guitar Tabs, Chords and Lyrics
Major upgrade!! After one year development the new version of Chordie is now online! Please give feedback.


Bullion  Millencolin

BULLION by Millencolin (life on a plate)
 
 -------

transcribed by guzz: paiva@usa.net
Intro:
 
 e-|-------------------------------------------------|
 B-|-------------------------------------------------|
 G-|-7-----------4-----------7-----------4-----------|
 D-|-7-7-5-------4-5-7-------7-7-5-------4-5-7-------|
 A-|-5-7-5-------2-5-7-------5-7-5-------2-5-7-------|
 E-|---5-3---------3-5---------5-3-3-3-3---3-5-5-5-5-|

2x 2x
First verse (second is the same).
D A G B A Keep playing first notes quicly.
play 2 times than
 
 e-|-------------------------| change picking (same chords).
 B-|-------------------------|
 G-|-7-----------------4--2--|
 D-|-7-----7-----5-----4--2--|
 A-|-5-----7-----5-----2--0--|
 E-|-------5-----3-----------|
 e-|-------------------------------------------------|
 B-|-------------------------------------------------|
 G-|-7-----------4-----------7-----------4-----------|
 D-|-7-7-5-------4-5-7-------7-7-5-------4-5-7-------|
 A-|-5-7-5-------2-5-7-------5-7-5-------2-5-7-------|
 E-|---5-3-3-3-3---5-5-5-5-5---5-3-3-3-3---3-5-5-5-5-| second verse

these last few years... / slide
 
 e-|-------------------------------------------------|
 B-|-------------------------------------------------|
 G-|-/7/9/12-11-12-11-9-7----/9-12-11------12/14-----|
 D-|-------------------------------------------------|
 A-|-------------------------------------------------|
 E-|-------------------------------------------------|

I'm gonna change...
[D] [A] [B] [G] 
 
 e-|---------------------------------------|
 B-|---------------------------------------|
 G-|--------7---------------4--------------|
 D-|--------7-------7-------4-------5------|
 A-|--------5-------7-------2-------5------|
 E-|----------------5---------------3------|

D A B G ...I think it sounds like this.
 
 e-|-------15-14-----------------------|
 B-|---------?-------------------------|
 G-|-----------------------------------|
 D-|-----------------------------------|
 A-|-----------------------------------|
 E-|-----------------------------------|

That's the end.
 
 e-|---------------------------------------|
 B-|---------------------------------------|
 G-|--------7-----------4------------------|
 D-|--------7-7-5-------4-5-7--------------|
 A-|--------5-7-5-------2-5-7--------------|
 E-|----------5-3---------3-5--------------|


Important: The song above is NOT stored on the Chordie server. The original song is hosted at www.guitaretab.com. Chordie works as a search engine and provides on-the-fly formatting. Chordie does not index songs against artists'/composers' will. To remove this song please click here.

Text color:
Chord color:
Chord grids: 
Font size:    
Page size: 

A B D G
Rate #2 of 5 versions

Jango Player

Login - add to songbook

SHARE PAGE  



You need to log in to post comments