Guitar Tabs, Chords and Lyrics
Major upgrade!! After one year development the new version of Chordie is now online! Please give feedback.


Kemp   Millencolin

 
 e[-------------------------]
 b[-------------------------]
 g[-------------4444-2222---]
 d[---4444-2222-4444-2222---] X 8
 a[---4444-2222-2222-0000---]
 E[---2222-0000-------------]At 3 time comes the second guitar and do the 

 


 next riff:


 Riff:


 


 

 
 e|----------------------------------------------------------------]
 B|----------------------------------------------------------------]
 G|---1111111111111111111111---141414---131313---141414---161616---]
 D|---1111111111111111111111---141414---131313---141414---161616---] X 2
 A|---9 9 9 9 9 9 9 9 9 9 9 ---121212---111111---121212---141414---]
 E|----------------------------------------------------------------]

 


 


 Verse:


 


 

 
 e[-------------------------]
 b[-------------------------]
 g[-------------4444-2222---] X 4
 d[---4444-2222-4444-2222---]
 a[---4444-2222-2222-0000---]at 4th time guitar 2 makes a pick slide and
 E[---2222-0000-------------]do the pre chorus:

 


 


 Pre Chorus:


 


 

 
 e[-------------------------]
 b[-------------------------]
 g[-------------4444-2222---]
 d[---4444-2222-4444-2222---] X 4
 a[---4444-2222-2222-0000---]
 E[---2222-0000-------------] Both Guitars

 


 


 


 Chorus:


 


 

 
 e|------------------------------------|
 B|------------------------------------|
 G|---777777777777---999999999999------|
 D|---777777777777---999999999999------| X 2
 A|---555555555555---777777777777------|
 E|------------------------------------| Both Guitars

 


 


 Then:


 


 

 
 e[-------------------------]
 b[-------------------------]
 g[-------------4444-2222---] X 4
 d[---4444-2222-4444-2222---]
 a[---4444-2222-2222-0000---]
 E[---2222-0000-------------]

 


 


 Guitar 2(Mathias Färm) do this again:


 


 

 
 e|----------------------------------------------------------------]
 B|----------------------------------------------------------------]
 G|---1111111111111111111111---141414---131313---141414---161616---]
 D|---1111111111111111111111---141414---131313---141414---161616---] X 2
 A|---9 9 9 9 9 9 9 9 9 9 9 ---121212---111111---121212---141414---]
 E|----------------------------------------------------------------]

 


 


 Verse 2:


 


 

 
 e[--------]
 b[--------]
 g[--------] X 4
 d[---4^---]
 a[---4^---] ^ = Let it ring
 E[---2^---]

 


 


 at 4th time Guitar 1(Erik Ohlsson) do this:


 


 

 
 e[------------------------------]
 b[------------------------------]
 g[---------1818-------18/0------]
 d[---1616--------1616-----------] It`s 16 not 1-6, It`s 18 not 1-8.
 a[------------------------------]
 E[------------------------------]

 


 


 Then Pre-Chorus:


 


 

 
 e[-------------------------]
 b[-------------------------]
 g[-------------4444-2222---] X 4
 d[---4444-2222-4444-2222---]
 a[---4444-2222-2222-0000---]Both Guitars
 E[---2222-0000-------------]

 


 


 Chorus:


 


 

 
 e|------------------------------------|
 b|------------------------------------|
 g|---777777777777---999999999999------|
 d|---777777777777---999999999999------| X 2
 a|---555555555555---777777777777------|Both Guitars
 E|------------------------------------|

 


 


 Guitar 1 (Erik Ohlsson)do the Bridge/Pre Solo:


 


 

 
 e[------------------------------------------------------------]
 b[------------------------------------------------------------]
 g[------------------------------------------------------------]
 d[---------7--------------------------------------------------]
 a[---7-9-7---9---7-9-7-9--9--9--9--9--99999999-121212121212---]
 E[------------------------------------------------------------]

 


 


 Solo(Erik Ohlsson):


 


 

 
 e[------14-----14----14----14----14----14----14----14----14--------------------
 b[-----------------------------------------------------------------------------
 g[---16b---16b---16b---16b---16b---16b---16b---16b---16b-----161616-14---------
 d[---------------------------------------------------------------------16-14--- CONTINUES:
 a[-----------------------------------------------------------------------------
 E[-----------------------------------------------------------------------------
 e[---------------------------------------------]
 b[--------------------------11-11-11-10--------]
 g[-------------------------9--9--9-----11-99---]After solo guitar 1 keeps playing something
 d[--18--18--18--18--18-------------------------]like this:
 a[17--17--17--17--17--17-----------------------]And Guitar 2 do The Chorus:
 E[---------------------------------------------]
 e[----------------------------------------------------------------------------------------]
 b[----------------------------------------------------------------------------------------]
 g[---17b-17-15-----------17b-17-15---------17b-17-15----------1717171717171717171717-19---]
 d[------------17-151515-----------17-151515---------17-151515-----------------------------]
 a[----------------------------------------------------------------------------------------]
 E[----------------------------------------------------------------------------------------]

 


 


 Chorus:


 


 

 
 e|------------------------------------|
 b|------------------------------------|
 g|---777777777777---999999999999------|
 d|---777777777777---999999999999------| X 2
 a|---555555555555---777777777777------|Just guitar 2
 E|------------------------------------|

 


 


 then The Outro:


 


 

 
 e[-------------------------]
 b[-------------------------]
 g[-------------4444-2222---]
 d[---4444-2222-4444-2222---] X 8
 a[---4444-2222-2222-0000---]Both Guitars
 E[---2222-0000-------------]

 


 


 At 4th time guitar 2 (Mathias Färm) Makes next thing:


 


 

 
 e|----------------------------------------------------------------]
 b|----------------------------------------------------------------]
 g|---1111111111111111111111---141414---131313---141414---161616---]
 d|---1111111111111111111111---141414---131313---141414---161616---] X 2
 a|---9 9 9 9 9 9 9 9 9 9 9 ---121212---111111---121212---141414---]
 E|----------------------------------------------------------------]

 


 


 Guitar 2 (Mathias Färm) ends on:


 


 

 
 e[--------]
 b[--------]
 g[---11---]
 d[---11---]
 a[---9] [---]
 E[--------]

 


 


 Guitar 1 (Erik Ohlsson) Ends on:


 


 

 
 e[-------]
 b[-------]
 g[-------]
 d[---4---]
 a[---4---]
 E[---2---]


Important: The song above is NOT stored on the Chordie server. The original song is hosted at www.guitaretab.com. Chordie works as a search engine and provides on-the-fly formatting. Chordie does not index songs against artists'/composers' will. To remove this song please click here.

This song is displayed as text-only. Transposing and tuning is only available for chordpro-songs.
Rate #1 of 2 versions

Jango Player

Login - add to songbook

SHARE PAGE  



You need to log in to post comments