Guitar Tabs, Chords and Lyrics
Major upgrade!! After one year development the new version of Chordie is now online! Please give feedback.


The Ballad  Millencolin

THE BALLAD - Millencolin
- Tabbed By: Brent (XBInterceptor@aol.com)
I don't use an (e) string, so just guessing this is how the regular
chords would look. It sounds perfect to me without the (e) though...
[G] [E] [D] [C] [A]  
 
 e-|--3---3---3---3------|
 B-|--3---3---3---3---3--|
 G-|--0---0---2---0---2--|
 D-|--0---2---0---0---2--|
 A-|--2---2-------3---0--|
 E-|--3---0-------3------|

The last selection in the b[G]allgame.
Does n[E]ever g[D]et a p[C]ass. Not appreciated's just his f[G]irst name.
He's the s[E]capegoat [D]of the c[C]lass.
There are no friends to cheer him u[G]p and no g[E]irls, no sw[D]eet rom[C]ance.
It's impossible to e[G]xpand, when you n[E]ever get a s[D]econd chan[C]ce. G E D C
Do you know, who's that guy, who's all alone?
G E D C (ring out)
Do you care enough to see? He's in pain and misery. G E D C
He's not going to the school-prom. He said he had the flu.
Trumped-up excuses as he t[G]old mom.
"Im s[E]afer h[D]ere with y[C]ou."
She told her son.
"Someday, they'll a[G]ll be so[E]rry for mistr[D]eating y[C]ou.
Don't be afraid my son and t[G]rust me,
You'll be so[E]meone they will l[D]ook up to.[C]" G E D C
Do you know, who's that guy, who's all alone?
Do you c[G]are enough to see[E]? He's in pai[D]n and miser[C]y.
Do you care to see? Instrumental Part:
- Distorted Guitar 1
 
 e-|---------------------| |--------------------------|
 B-|---------------------| |--------------------------|
 G-|--12--------11-------| |--12--------11-------9-9--|
 D-|--12-(x7)---11-(x9)--| (x3) |--12-(x7)---11-(x6)--9-9--|
 A-|--10---------9-------| |--10---------9-------7-7--|
 E-|---------------------| |--------------------------|
 e-|---------------------| |---------------------|
 B-|---------------------| |---------------------|
 G-|--12--------11-------| |--12--------14-------|
 D-|--12-(x7)---11-(x9)--| (x3) |--12-(x8)---14-(x8)--|
 A-|--10---------9-------| |--10--------12-------|
 E-|---------------------| |---------------------|

- Distorted Guitar 2
 
 e-|-------------------------------------|
 B-|-------------------------------------|
 G-|-----------------------2~---5~---7~--|
 D-|--5~---2~---5~---2~----2~---5~---7~--|
 A-|--5~---2~---5~---2~----0~---3~---5~--|
 E-|--3~---0~---3~---0~------------------|

- Acoustic
Do yo[G]u kno[E]w, wh[G]o's t[E]hat gu[A]y, wh[C]o's a[D]ll alone? [G] [E] [D] [C]
Do you c[G]are enough to see[E]? He's in pai[D]n and miser[C]y.
- Distorted Guitar 1
 
 e-|---------|
 B-|---------|

G-|--12...--|
D-|--12...--|
A-|--10...--|
 
 E-|---------|

- Distorted Guitar 2
 
 e-|--3-----3-----3-----3--|
 B-|--3-----3-----3-----3--|
 G-|--0-----0-----2-----0--|
 D-|--0-----2-----0-----0--|
 A-|--2-----2-----------3--|
 E-|--3-----0-----------3--|

Instrumental Part 2:
- Distorted Guitar 1
 
 e-|---------|
 B-|---------|

G-|--12...--|
D-|--12...--|
A-|--10...--|
 
 E-|---------|

- Distorted Guitar 2
 
 e-|--3-----3-----3-----3--|
 B-|--3-----3-----3-----3--|
 G-|--0-----0-----2-----0--|
 D-|--0-----2-----0-----0--|
 A-|--2-----2-----------3--|
 E-|--3-----0-----------3--|

- Acoustic
[G] [E] [D] [C]  
Im gonna end it right here. The rest is basically the same, so its not hard to
figure out. Feel free to correct me on anything, as with my luck, im wrong.

Important: The song above is NOT stored on the Chordie server. The original song is hosted at www.guitaretab.com. Chordie works as a search engine and provides on-the-fly formatting. Chordie does not index songs against artists'/composers' will. To remove this song please click here.

Text color:
Chord color:
Chord grids: 
Font size:    
Page size: 

A C D E G
Rate #2 of 3 versions

Jango Player

Login - add to songbook

SHARE PAGE  




You need to log in to post comments