Guitar Tabs, Chords and Lyrics
Major upgrade!! After one year development the new version of Chordie is now online! Please give feedback.


Jellygoose   Millencolin

 
 e[-------------------]
 b[-------------------]
 g[---7-77-77-77------]
 d[---7-77-77-77------]
 a[---5-55-55-55------]
 E[-------------------]

 


 


 The verse is the same thing that the intro,all the time the same chord.


 


 Pre-Chorus:(I talk to my Self and say that you`re standing..)both guitars


 


 

 
 e[--------------------------------------]
 b[--------------------------------------]
 g[---4444444-------444444------22222----]
 d[---4444444-55-55-444444-5555-22222----]
 a[---2222222-55-55-222222-5555-00000----]
 E[-----------33-33--------3333----------]

 


 


 Chorus:(It`s not the first time our love seems to be fading...)


 


 

 
 e[------------------------------------------------------]
 b[------------------------------------------------------]
 g[---777777-22222-44444444444--777777-22222-------------]
 d[---777777-22222-44444444444--777777-22222-5-55-5-55---]x2
 a[---555555-00000-22222222222--555555-00000-5-55-5-55---]
 E[------------------------------------------3-33-3-33---]

 


 


 PM PM PM PM


 


 Then Verse 2 is differen that the first one, this one follows the bass.


 


 Verse 2:Both Guitars(We share my bed when we could share so much more.....)


 


 

 
 e[---------------------------------]
 b[---------------------------------]
 g[---777777-44444------222-77777---]
 d[---777777-44444-5555-222-77777---]x 2
 a[---555555-22222-5555-000-55555---]
 E[----------------3333-------------]

 


 


 Then Pre chorus:


 then Chorus, and then Interlude.


 


 Interlude:(I need a rest right now, from my self and everyone...)


 


 

 
 e[----------------------]
 b[----------------------]
 g[-----------2222222----]
 d[---5555555-2222222----]x 3
 a[---5555555-0000000----]Heavy Palm mute
 E[---3333333------------]

 


 


 Then solo:


 Guitar 1:


 Part one


 

 
 e[---------------------------------------------------
 b[---------------------------------------------------
 g[---------------------------------------------------
 d[---7-5-4-5-4-2222-4-5-4-00-7-5-4-7-9-7/4-5-4-2-0---
 a[---------------------------------------------------
 E[---------------------------------------------------

 


 


 Part two


 


 

 
 e[------------------------------------------------------------]
 b[------------------------------------------------------------]
 g[------------------------------------------------------------]
 d[---7-5-4-5-4-2222-4-5-4-00-7-5-4-7-9-7-4-7-5-4-2-4-2-9(b)---]
 a[------------------------------------------------------------]
 E[------------------------------------------------------------]

 


 


 Guitar 2:


 


 

 
 e[--------------------------------------------]
 b[--------------------------------------------]
 g[---7777-22222-44444------7777-2222----------]
 d[---7777-22222-44444-5555-7777-2222-555555---]x 2
 a[---5555-00000-22222-5555-5555-0000-555555---]
 E[--------------------3333-----------333333---]

 


 


 Then Pre chorus


 Then chorus, and finishing the chorus comes this


 


 

 
 e[--------------------------]
 b[--------------------------]
 g[---------222222-7777777---]
 d[---55555-222222-7777777---]x 3
 a[---55555-000000-5555555---]
 E[---33333------------------]

 


 


 And the song finish on this:


 (Pretend-is-love)


 

 
 e[---------------]
 b[---------------]
 g[---7-------7---]
 d[---7---5---7---]
 a[---5---5---5---]
 E[-------3-------]


Important: The song above is NOT stored on the Chordie server. The original song is hosted at www.guitaretab.com. Chordie works as a search engine and provides on-the-fly formatting. Chordie does not index songs against artists'/composers' will. To remove this song please click here.

This song is displayed as text-only. Transposing and tuning is only available for chordpro-songs.
Rate #1 of 2 versions

Jango Player

Login - add to songbook

SHARE PAGE  




You need to log in to post comments