Guitar Tabs, Chords and Lyrics
Major upgrade!! After one year development the new version of Chordie is now online! Please give feedback.


Spanish Romance   Misc. Unsigned Bands



e--7--7--7----7--5--3----3--2--0----0--3--7------12--12--12----12--10---8------8--7--5----5--7--8-----
B---0--0--0----0--0--0----0--0--0----0--0--0-------0----0----0----0----0--0--5----5--5--5----5--5---5---
G----0--0--0----0--0--0----0--0--0----0--0--0-------0----0----0----0----0--0--5----5--5--5----5--5---5--
D------------------------------------------------------------------------------------------------------------------------
A-------------------------------------------------------------------------------------------------------------------------
E--0-----------0-----------0-----------0---------------0---------------0-------------------5-----------5-------------


e--7--8--7----11--8--7----7--5--3----3--2--0-----2--2--2----2--3--2------0-------------------------------
B---7--7--7-----7--7--7----0--0--0----0--0--0------0--0--0----0--0--0------0-----0-----0----------------
G----8--8--8-----8--8--8----0--0--0----0--0--0-------2--2--2----2--2--2------0-----0----0---------------
D------------------------------------------------------------------------------------------------------------
A---------------------------------------------------------2-----------2--------------------2------------------------
E--7------------7-----------0------------0-----------------------------------------0------------3---------0-------

Play twice


e--4--4--4----4--2--0-------------------------------9--9--9----9--11--9----9--7--7----7--9--11-------
B---0--0--0-----0--0--0----5--4--4-----4--3--4---7--7--7----7---7--7-----9--9--9----9--9--9-------
G----1--1--1-----1--1--1----2--2--2-----2--2--2---8--8--8----8--8--8------9--9--9----9--9--9-----
D---------------------------------4--4--4----4--4--4---------------------------------------------------------
A------------------------------2-------------2------------------------------------------------------------------
E--0------------0--------------------------------------7-----------7------------0------------0----------------


e--12--12--12----12--11--10----9--9--9----9--7--5----4--4--4----4--5--2-----0---------------------
B----9----9----9------9---9----9----5--5--5----5--5--5----4--4--4----4--4--4----0----0----0--------
G-----9----9----9------9---9----9----6--6--6----6--6--6----2--2--2----2--2--2----1----1----1---------
D-----------------------------------------------------------------------------------------------------------------
A--------------------------------------0------------0-------------2------------2----------------2----------------
E---0-----------------0--------------------------------------------------------------------0--------4---------0---

Play first part one more time...








    
    
    

        
            
            
            
        
    
    

    

    

    VIEW
       
        FONT
        SCROLL
        
            PRINT
        
        
            SEARCH
        
    

                     
                    x
                    

                        Normal
                        Lyrics
                        Chords
                        Tabs
                                                                ChordPro
                    
                
                
                    x
                    

                        Small
                        Medium
                        Large
                    
                
                
                    x
                    

                        Pause
                        Start
                        
                        1
                        2
                        3
                        4
                        5
                        6
                        7
                        
                    
                
                
                    x
                    

                        
                                        
                        
                        Text color:
                        
                        Chord color:
                        
                        
                        Chord grids:Images No Images
                        
                        
                        Font size:XS S M L XL
                        
                        
                        Page size:A4 Letter
                        
                        

                        
                        Save settings
                        Print Preview
                    
                

                            
                            
            
                            
                      
                    
        

                                        

Important: The song above is NOT stored on the Chordie server. The original song is hosted at www.guitaretab.com. Chordie works as a search engine and provides on-the-fly formatting. Chordie does not index songs against artists'/composers' will. To remove this song please click here.

This song is displayed as text-only. Transposing and tuning is only available for chordpro-songs.

Notice: Trying to get property of non-object in /var/www/chordiepro/include/panel.inc on line 55
Rate #0 of 0 versions

Login - add to songbook

SHARE PAGE  




You need to log in to post comments