Guitar Tabs, Chords and Lyrics
Server problems seems to be fixed. Chordie has been experiencing problems with songs disappearing. These issues now seems to be fixed, but still verifying the fix. If you find anything strange, please email admin@chordie.com.


A Certain Death  Misery Signals

As recorded by Misery Signals
(From the 2008 Album CONTROLLER)
Transcribed by Chris Allan
All guitars in Drop C tuning
For those who don't have powertab, here you go. Expect more from this album soon, I'm
done Nothing.
Intro
Q=185
Bbadd11/Eb N.C. Bbadd11/Eb
[4/4] Gtr I
PM
 
 |------------|-----------------------|---------------------|-----------|
 |-5---5---5--|-----------------------|-------------------5-|--5-(5)----|
 |-5---5---5--|--12-10-12-------------|-9h12--9-----------5-|--5-(5)----|
 |-3---3---3--|-----------10-----9h10-|---------10-----9--3-|--3-(3)----|
 |-3---3---3--|--------------10-------|------------10-----3-|--3-(3)----|
 |-3---3---3--|-----------------------|-------------------3-|--3-(3)----|

|
| Gtr II
 
 |------------|-----------------------|---------------------|-----------|
 |-5---5---5--|-----------------------|-------------------5-|--5-(5)----|
 |-5---5---5--|-----------------------|----9--------------5-|--5-(5)----|
 |-3---3---3--|-----------------------|-9----10-----------3-|--3-(3)----|
 |-3---3---3--|-----------------10h12-|---------10--7-10--3-|--3-(3)----|
 |-3---3---3--|-----------------------|-------------------3-|--3-(3)----|

Q=175
[D5]  
 
 PM--------------------| PM----------------|

4x
 
 ||--------------------------|------------------------||
 ||o-------------------------|-----------------------o||
 ||--------------------------|------------------------||
 ||--------------------------|------------------------||
 ||o-2-2-2-2-2-2-2-2-2-2-2-2-|---2-2-2-2-2-2-2-2-2-2-o||
 ||--2-2-2-2-2-2-2-2-2-2-2-2-|---2-2-2-2-2-2-2-2-2-2--||

|
 
 | PM--------------------| PM----------------|

| 4x
 
 ||--------------------------|------------------------||
 ||o-------------------------|-----------------------o||
 ||--------------------------|------------------------||
 ||--------------------------|------------------------||
 ||o-2-2-2-2-2-2-2-2-2-2-2-2-|---2-2-2-2-2-2-2-2-2-2-o||
 ||--2-2-2-2-2-2-2-2-2-2-2-2-|---2-2-2-2-2-2-2-2-2-2--||

"Embrace the sickness..."
Q=190
[Gm] [G5] [F5]  
 
 |-------------|-------------|-------------|------------------|
 |-------------|-------------|-------------|------------------|
 |--5--5--5--5-|--4--4--4--4-|--5--5--5--5-|------------------|
 |--7--7--7--7-|--7--7--7--7-|--7--7--7--7-|-7-7-7-7-5-5-5-5--|
 |--7--7--7--7-|--7--7--7--7-|--7--7--7--7-|-7-7-7-7-5-5-5-5--|
 |--7--7--7--7-|--7--7--7--7-|--7--7--7--7-|-7-7-7-7-5-5-5-5--|

|
 
 |-------------|-------------|-------------|------------------|
 |-------------|-------------|-------------|------------------|
 |--5--5--5--5-|--4--4--4--4-|--5--5--5--5-|-----5-----4------|
 |--7--7--7--7-|--7--7--7--7-|--7--7--7--7-|------------------|
 |--7--7--7--7-|--7--7--7--7-|--7--7--7--7-|-0h3---0h2--------|
 |--7--7--7--7-|--7--7--7--7-|--7--7--7--7-|-------------5s7--|

Bbadd11/Eb N.C.
 
 |-------------|----------------|----------------|------------------------|
 |--5--5--5--5-|-(5)-5--5--5--5-|----------------|---------8--------------|
 |--5--5--5--5-|-(5)-5--5--5--5-|-5-5--5--5--(5)-|-------9----9-----------|
 |--3--3--3--3-|-(3)-3--3--3--3-|-2-2--2--2--(2)-|--9h10--------10-----9--|
 |--3--3--3--3-|-(3)-3--3--3--3-|-3-3--3--3--(3)-|-----------------10-----|
 |--3--3--3--3-|-(3)-3--3--3--3-|-2-2--2--2--(2)-|------------------------|

|
 
 |-------------|----------------|----------------|------------------------|
 |--5--5--5--5-|-(5)-5--5--5--5-|----------------|------------------------|
 |--5--5--5--5-|-(5)-5--5--5--5-|----------------|---------9--------------|
 |--3--3--3--3-|-(3)-3--3--3--3-|-5-5--5--5--(5)-|-------9---10-----------|
 |--3--3--3--3-|-(3)-3--3--3--3-|-3-3--3--3--(3)-|-10h12--------10--7-10--|
 |--3--3--3--3-|-(3)-3--3--3--3-|-2-2--2--2--(2)-|------------------------|

Q=175
NBbadd11/Eb D5
 
 PM------------------------|
 |--------------|---------------------------|
 |--5--5-(5)----|---------------------------|
 |--5--5-(5)----|---------------------------|
 |--3--3-(3)----|---------------------------|
 |--3--3-(3)----|-2-2-2-2-2-2-2-2-2-2-2-2---|
 |--3--3-(3)----|-2-2-2-2-2-2-2-2-2-2-2-2---|

|
 
 | PM------------------------|
 |--------------|---------------------------|
 |--5--5-(5)----|---------------------------|
 |--5--5-(5)----|---------------------------|
 |--3--3-(3)----|---------------------------|
 |--3--3-(3)----|-2-2-2-2-2-2-2-2-2-2-2-2---|
 |--3--3-(3)----|-2-2-2-2-2-2-2-2-2-2-2-2---|

Q=190
NEb. F Gm Gm7 Gm
 
 |-------------|-------------|-------------|-----------------|
 |-------------|-------------|--------8--8-|-(8)-5--5--5--5--|
 |--2--2--2--2-|--4--4--4--4-|--5--5--5--5-|-(5)-5--5--5--5--|
 |--3--3--3--3-|--5--5--5--5-|--7--7--7--7-|-(7)-7--7--7--7--|
 |--3--3--3--3-|--5--5--5--5-|--7--7--7--7-|-(7)-7--7--7--7--|
 |--3--3--3--3-|--5--5--5--5-|--7--7--7--7-|-(7)-7--7--7--7--|

|
 
 |-------------|-------------|-------------|-----------------|
 |-------------|-------------|-------------|-----------------|
 |--2--2--2--2-|--4--4--4--4-|--5--5--5--5-|-(5)-5--5--5--5--|
 |--3--3--3--3-|--5--5--5--5-|--7--7--7--7-|-(7)-7--7--7--7--|
 |--3--3--3--3-|--5--5--5--5-|--7--7--7--7-|-(7)-7--7--7--7--|
 |--3--3--3--3-|--5--5--5--5-|--7--7--7--7-|-(7)-7--7--7--7--|

[Eb] [F]  
 
 |-------------------|------------------|
 |-------------------|------------------|
 |-10-10--10--10--10-|-7-7--/14--14--14-|
 |--x--x---x---x---x-|-x-x----x---x---x-|
 |--8--8---8---8---8-|-5-5--/12--12--12-|
 |-------------------|------------------|

|
 
 |-------------------|------------------|
 |-------------------|------------------|
 |--2--2---2---2---2-|-4-4----4---4---4-|
 |--3--3---3---3---3-|-5-5----5---5---5-|
 |--3--3---3---3---3-|-5-5----5---5---5-|
 |--3--3---3---3---3-|-5-5----5---5---5-|

Gm N.C. Bbadd11/Eb
 
 |--------------|-----------------------|--------------||
 |--------------|---------8-------------|--5--5-(5)----||
 |-7s9--9--9--9-|-------9----9----------|--5--5-(5)----||
 |-x-x--x--x--x-|--9h10--------10-----9-|--3--3-(3)----||
 |-5s7--7--7--7-|-----------------10----|--3--3-(3)----||
 |--------------|-----------------------|--3--3-(3)----||

|
 
 |--------------|-----------------------|--------------||
 |--------------|-----------------------|--5--5-(5)----||
 |-5-5--5--5--5-|---------9-------------|--5--5-(5)----||
 |-7-7--7--7--7-|-------9---10----------|--3--3-(3)----||
 |-7-7--7--7--7-|-10h12--------10--7-10-|--3--3-(3)----||
 |-7-7--7--7--7-|-----------------------|--3--3-(3)----||

"Would you really want..."
Q=175
[D5]  
 
 PM--------------------| PM----------------|

4x
 
 ||--------------------------|------------------------||
 ||o-------------------------|-----------------------o||
 ||--------------------------|------------------------||
 ||--------------------------|------------------------||
 ||o-2-2-2-2-2-2-2-2-2-2-2-2-|---2-2-2-2-2-2-2-2-2-2-o||
 ||--2-2-2-2-2-2-2-2-2-2-2-2-|---2-2-2-2-2-2-2-2-2-2--||

|
 
 | PM--------------------| PM----------------|

| 4x
 
 ||--------------------------|------------------------||
 ||o-------------------------|-----------------------o||
 ||--------------------------|------------------------||
 ||--------------------------|------------------------||
 ||o-2-2-2-2-2-2-2-2-2-2-2-2-|---2-2-2-2-2-2-2-2-2-2-o||
 ||--2-2-2-2-2-2-2-2-2-2-2-2-|---2-2-2-2-2-2-2-2-2-2--||

[Gm] [Dsus4/G]  
 
 |----------|------------|----------|-------------|
 |----------|------------|----------|-------------|
 |-5--------|-(5)--------|-4--------|-(4)---------|
 |-7--------|-(7)--------|-7--------|-(7)---------|
 |-7--------|-(7)--------|-7--------|-(7)---------|
 |-7--------|-(7)--------|-7--------|-(7)---------|

|
 
 |----------|------------|----------|-------------|
 |----------|------------|----------|-------------|
 |-5--------|-(5)--------|-4--------|-(4)---------|
 |-7--------|-(7)--------|-7--------|-(7)---------|
 |-7--------|-(7)--------|-7--------|-(7)---------|
 |-7--------|-(7)--------|-7--------|-(7)---------|

H.=H
[Gm]  
 
 |-----------------------|-------------------------||
 |-----------------------|-------------------------||
 |-5---------------------|-(5)---------------------||
 |-7---------------------|-(7)---------------------||
 |-7---------------------|-(7)---------------------||
 |-7---------------------|-(7)---------------------||

|
| TPTPTPTP TP TPTPTP TPTPTPTP
 
 |-----------------------|-------------------------||
 |-----------------------|-------------------------||
 |-9-(9)b10r(9)--9-9-9-9-|--9--9-9-9b9.5==9-9-9-9r-||
 |-x-(x)----(x)----------|-------------------------||
 |-7-(7)----(7)----------|-------------------------||
 |-----------------------|-------------------------||

"To meet your maker..."
Q=160
[D5]  
[2/4]  
 
 PM---------------------------------------------------| PM----------|
 |---------------------------|---------------------------|--------------|
 |---------------------------|---------------------------|--------------|
 |---------------------------|---------------------------|--------------|
 |---------------------------|---------------------------|--------------|
 |-2-2-2-2-2-2--2-2-2-2-2-2--|-2-2-2-2-2-2--2-2-2-2-2-2--|--2-2-2-2-----|
 |-2-2-2-2-2-2--2-2-2-2-2-2--|-2-2-2-2-2-2--2-2-2-2-2-2--|--2-2-2-2-----|

|
 
 | PM---------------------------------------------------| PM----------|
 |---------------------------|---------------------------|--------------|
 |---------------------------|---------------------------|--------------|
 |---------------------------|---------------------------|--------------|
 |---------------------------|---------------------------|--------------|
 |-2-2-2-2-2-2--2-2-2-2-2-2--|-2-2-2-2-2-2--2-2-2-2-2-2--|--2-2-2-2-----|
 |-2-2-2-2-2-2--2-2-2-2-2-2--|-2-2-2-2-2-2--2-2-2-2-2-2--|--2-2-2-2-----|

D5EbD5EbD5 D5EbD5EbD5 D5EbD5EbD5 D5EbD5EbD5N.C.
[6/4] PM PM----| PM
 
 |-------------------------------|-----------------------------|
 |-------------------------------|-----------------------------|
 |-------------------------------|-----------------------------|
 |-------------------------------|-----------------------------|
 |-2h3-2h3-2--2h3-2h3-2-2-2-2-2--|-2h3-2h3-2--2h3-2h3-2-----5--|
 |-2h3-2h3-2--2h3-2h3-2-2-2-2-2--|-2h3-2h3-2--2h3-2h3-2-0h2----|

|
| PM PM----|
 
 |-------------------------------|-----------------------------|
 |-------------------------------|-----------------------------|
 |-------------------------------|-----------------------------|
 |-------------------------------|-----------------------------|
 |-2h3-2h3-2--2h3-2h3-2-2-2-2-2--|-2h3-2h3-2--2h3-2h3-2-----5--|
 |-2h3-2h3-2--2h3-2h3-2-2-2-2-2--|-2h3-2h3-2--2h3-2h3-2-0h2----|

D5EbD5EbD5 D5EbD5EbD5 D5EbD5EbD5 D5EbD5EbD5N.C.
13/8
 
 PM------| PM-----------------------------------|
 |-----------------------------------|--------------------------------|
 |-----------------------------------|--------------------------------|
 |-----------------------------------|--------------------------------|
 |-----------------------------------|--------------------------------|
 |-2h3-2h3-2--2h3-2h3-2-2-2-2-2--2-2-|-2h3-2h3-2--2h3-2h3-2------5----|
 |-2h3-2h3-2--2h3-2h3-2-2-2-2-2--2-2-|-2h3-2h3-2--2h3-2h3-2--0h2------|

|
 
 | PM------| PM-----------------------------------|
 |-----------------------------------|--------------------------------|
 |-----------------------------------|--------------------------------|
 |-----------------------------------|--------------------------------|
 |-----------------------------------|--------------------------------|
 |-2h3-2h3-2--2h3-2h3-2-2-2-2-2--2-2-|-2h3-2h3-2--2h3-2h3-2------5----|
 |-2h3-2h3-2--2h3-2h3-2-2-2-2-2--2-2-|-2h3-2h3-2--2h3-2h3-2--0h2------|

D5EbD5EbD5 D5EbD5EbD5 D5EbD5EbD5 D5EbD5EbD5N.C.
[6/4] PM PM----|
 
 |-------------------------------|----------------------------|
 |-------------------------------|----------------------------|
 |-------------------------------|----------------------------|
 |-------------------------------|----------------------------|
 |-2h3-2h3-2--2h3-2h3-2-2-2-2-2--|-2h3-2h3-2--2h3-2h3-2-----5-|
 |-2h3-2h3-2--2h3-2h3-2-2-2-2-2--|-2h3-2h3-2--2h3-2h3-2-0h2---|

|
| PM PM----|
 
 |-------------------------------|----------------------------|
 |-------------------------------|----------------------------|
 |-------------------------------|----------------------------|
 |-------------------------------|----------------------------|
 |-2h3-2h3-2--2h3-2h3-2-2-2-2-2--|-2h3-2h3-2--2h3-2h3-2-----5-|
 |-2h3-2h3-2--2h3-2h3-2-2-2-2-2--|-2h3-2h3-2--2h3-2h3-2-0h2---|

1[D5EbD5EbD5]3/8[D5EbD5EbD5]
 
 PM------| PM----|
 |-------------------------------------|
 |-------------------------------------|
 |-------------------------------------|
 |-------------------------------------|
 |-2h3-2h3-2--2h3-2h3-2-2-2-2-2--2-2---|
 |-2h3-2h3-2--2h3-2h3-2-2-2-2-2--2-2---|

|
 
 | PM------| PM----|
 |-------------------------------------|
 |-------------------------------------|
 |-------------------------------------|
 |-------------------------------------|
 |-2h3-2h3-2--2h3-2h3-2-2-2-2-2--2-2---|
 |-2h3-2h3-2--2h3-2h3-2-2-2-2-2--2-2---|

D5EbD5EbD5 D5EbD5EbD5N.C. D5EbD5EbD5 D5EbD5EbD5C#5
[6/4] PM PM----|
 
 |----------------------------|--------------------------------|
 |----------------------------|--------------------------------|
 |----------------------------|--------------------------------|
 |----------------------------|--------------------------------|
 |-2h3-2h3-2--2h3-2h3-2-----4-|-2h3-2h3-2--2h3-2h3-2-1-1-1-1---|
 |-2h3-2h3-2--2h3-2h3-2-0h2---|-2h3-2h3-2--2h3-2h3-2-1-1-1-1---|

|
| PM PM----|
 
 |----------------------------|--------------------------------|
 |----------------------------|--------------------------------|
 |----------------------------|--------------------------------|
 |----------------------------|--------------------------------|
 |-2h3-2h3-2--2h3-2h3-2-----4-|-2h3-2h3-2--2h3-2h3-2-1-1-1-1---|
 |-2h3-2h3-2--2h3-2h3-2-0h2---|-2h3-2h3-2--2h3-2h3-2-1-1-1-1---|

[D5EbD5EbD5] [D5EbD5EbD5C#5] 13/8[D5] [D5EbD5EbD5]
PM----| PM|
 
 |--------------------------|---------------------------------|
 |--------------------------|---------------------------------|
 |--------------------------|---------------------------------|
 |--------------------------|---------------------------------|
 |-2h3-2h3-2--2h3-2h3-2-1---|-(1)---2--2h3-2h3-2-2-2-2-2--2-2-|
 |-2h3-2h3-2--2h3-2h3-2-1---|-(1)---2--2h3-2h3-2-2-2-2-2--2-2-|

|
| PM----| PM|
 
 |--------------------------|---------------------------------|
 |--------------------------|---------------------------------|
 |--------------------------|---------------------------------|
 |--------------------------|---------------------------------|
 |-2h3-2h3-2--2h3-2h3-2-1---|-(1)---2--2h3-2h3-2-2-2-2-2--2-2-|
 |-2h3-2h3-2--2h3-2h3-2-1---|-(1)---2--2h3-2h3-2-2-2-2-2--2-2-|

1[D5EbD5EbD5]5/8[D5EbD5EbD5C#5]
 
 |---------------------------|
 |---------------------------|
 |---------------------------|
 |---------------------------|
 |-2h3-2h3-2--2h3-2h3-2-1----|
 |-2h3-2h3-2--2h3-2h3-2-1----|

|
 
 |---------------------------|
 |---------------------------|
 |---------------------------|
 |---------------------------|
 |-2h3-2h3-2--2h3-2h3-2-1----|
 |-2h3-2h3-2--2h3-2h3-2-1----|

Q=150
[C#5]  
[4/4] [2/4]  
 
 PM---------------------------------------------------| PM----------|
 |---------------------------|---------------------------|--------------|
 |---------------------------|---------------------------|--------------|
 |---------------------------|---------------------------|--------------|
 |---------------------------|---------------------------|--------------|
 |-1-1-1-1-1-1--1-1-1-1-1-1--|-1-1-1-1-1-1--1-1-1-1-1-1--|--1-1-1-1-----|
 |-1-1-1-1-1-1--1-1-1-1-1-1--|-1-1-1-1-1-1--1-1-1-1-1-1--|--1-1-1-1-----|

|
 
 | PM---------------------------------------------------| PM----------|
 |---------------------------|---------------------------|--------------|
 |---------------------------|---------------------------|--------------|
 |---------------------------|---------------------------|--------------|
 |---------------------------|---------------------------|--------------|
 |-1-1-1-1-1-1--1-1-1-1-1-1--|-1-1-1-1-1-1--1-1-1-1-1-1--|--1-1-1-1-----|
 |-1-1-1-1-1-1--1-1-1-1-1-1--|-1-1-1-1-1-1--1-1-1-1-1-1--|--1-1-1-1-----|

"Keep searching..."
[C5]  
[4/4] [2/4]  
 
 PM---------------------------------------------------| PM------|

4x
 
 ||----------------------------|---------------------------|-------------||
 ||o---------------------------|---------------------------|------------o||
 ||----------------------------|---------------------------|-------------||
 ||----------------------------|---------------------------|-------------||
 ||o-0-0-0-0-0-0--0-0-0-0-0-0--|-0-0-0-0-0-0--0-0-0-0-0-0--|--0-0-0-0---o||
 ||--0-0-0-0-0-0--0-0-0-0-0-0--|-0-0-0-0-0-0--0-0-0-0-0-0--|--0-0-0-0----||

|
 
 | PM---------------------------------------------------| PM------|

| 4x
 
 ||----------------------------|---------------------------|-------------||
 ||o---------------------------|---------------------------|------------o||
 ||----------------------------|---------------------------|-------------||
 ||----------------------------|---------------------------|-------------||
 ||o-0-0-0-0-0-0--0-0-0-0-0-0--|-0-0-0-0-0-0--0-0-0-0-0-0--|--0-0-0-0---o||
 ||--0-0-0-0-0-0--0-0-0-0-0-0--|-0-0-0-0-0-0--0-0-0-0-0-0--|--0-0-0-0----||

"I can't pretend anymore.."
N.C. Gm Dsus4/G Gm
[5/4] [3/4]  
 
 |-----------||----------------------|-------------|-------------------------|
 |-----------||o---------------------|-------------|-------------------------|
 |-----------||---5-5---5-------5--5-|--4-4-4-4-4--|--5-5-----------5--5--5--|
 |-----------||---7-7---7-------7--7-|--7-7-7-7-7--|--7-7-----------7--7--7--|
 |-----------||o--7-7---7-------7--7-|--7-7-7-7-7--|--7-7-----------7--7--7--|
 |-----------||---7-7---7-------7--7-|--7-7-7-7-7--|--7-7-----------7--7--7--|

|
 
 |-----------||----------------------|-------------|-------------------------|
 |-----------||o-17---(17)b18r(17)---|-15----------|-17---(17)b18r(17)---15--|
 |-----------||----------------------|-------------|-------------------------|
 |-----------||----------------------|-------------|-------------------------|
 |-----------||o---------------------|-------------|-------------------------|
 |-----------||----------------------|-------------|-------------------------|

[F] [Eb] [F] 4x
 
 |----------------|----------------|--------------------|----------------||
 |----------------|----------------|--------------------|---------------o||
 |--4-4----4--4-4-|--2-2----2--2-2-|--2-2--2--2---2-----|---4--4--4-4-4--||
 |--5-5----5--5-5-|--3-3----3--3-3-|--3-3--3--3---3-----|---5--5--5-5-5--||
 |--5-5----5--5-5-|--3-3----3--3-3-|--3-3--3--3---3-----|---5--5--5-5-5-o||
 |--5-5----5--5-5-|--3-3----3--3-3-|--3-3--3--3---3-----|---5--5--5-5-5--||

|
| 4x
 
 |----------------|-----------15---|--------------------|----------------||
 |-17-------------|----------------|--------------------|--------15-----o||
 |------17---16---|-14---16--------|-14---14-16-(16)b17r|=(16)-----------||
 |----------------|----------------|--------------------|----------------||
 |----------------|----------------|--------------------|---------------o||
 |----------------|----------------|--------------------|----------------||

Gm N.C. DsusN.C. Gm N.C. F N.C.
 
 PM------| PM------| PM------| PM-----------|
 ||----------------|---------------|---------------|------------------|
 ||o---------------|---------------|---------------|------------------|
 ||--5-5-----------|-4-4-----------|-5-5-----------|-4-4--------------|
 ||--7-7-----------|-7-7-----------|-7-7-----------|-5-5--------------|
 ||o-7-7-----------|-7-7-----------|-7-7-----------|-5-5--------------|
 ||--7-7-7-7-7-7-7-|-7-7-7-7-7-7-7-|-7-7-7-7-7-7-7-|-5-5-5-5-5-5-5----|

|
 
 | PM------| PM------| PM------| PM-----------|
 ||----------------|---------------|---------------|------------------|
 ||o---------------|---------------|---------------|------------------|
 ||--5-5-----------|-4-4-----------|-5-5-----------|-4-4--------------|
 ||--7-7-----------|-7-7-----------|-7-7-----------|-5-5--------------|
 ||o-7-7-----------|-7-7-----------|-7-7-----------|-5-5--------------|
 ||--7-7-7-7-7-7-7-|-7-7-7-7-7-7-7-|-7-7-7-7-7-7-7-|-5-5-5-5-5-5-5----|

EbBbN.C. EbBbN.C. F N.C.
 
 PM------| PM------| PM------------|
 |---------------|---------------|-------------------|
 |---------------|---------------|---------------o---|
 |-2-------------|-2-------------|-4-4---------------|
 |-3-5-----------|-3-5-----------|-5-5---------------|
 |-3-3-----------|-3-3-----------|-5-5-----------o---|
 |-3-3-3-3-3-3-3-|-3-3-3-3-3-3-3-|-5-5-5-5-5-5-5-----|

|
 
 | PM------| PM------| PM------------|
 |---------------|---------------|-------------------|
 |---------------|---------------|---------------o---|
 |-2-------------|-2-------------|-4-4---------------|
 |-3-5-----------|-3-5-----------|-5-5---------------|
 |-3-3-----------|-3-3-----------|-5-5-----------o---|
 |-3-3-3-3-3-3-3-|-3-3-3-3-3-3-3-|-5-5-5-5-5-5-5-----|

Gm N.C. Dsus4N.C.
 
 PM-------------| PM----------|
 ||--------------------------|------------------|
 ||o-------------------------|------------------|
 ||---5-5--------------------|--4-4-------------|
 ||---7-7--------------------|--7-7-------------|
 ||o--7-7--------------------|--7-7-------------|
 ||---7-7---7-------7--7-7-7-|--7-7-7-7-7-7-7---|

|
 
 ||--------------------------|----------------|
 ||o-17---(17)b18r(17)-------|-15-------------|
 ||--------------------------|----------------|
 ||--------------------------|----------------|
 ||o-------------------------|----------------|
 ||--------------------------|----------------|

Gm N.C. F N.C.
 
 PM--------| PM-----------|
 |----------------------------|----------------------|
 |----------------------------|----------------------|
 |--5-5-----------------------|--4-4-----------------|
 |--7-7-----------------------|--5-5-----------------|
 |--7-7-----------------------|--5-5-----------------|
 |--7-7-----------7--7-7--7-7-|--5-5----5--5-5-5-5---|

|
 
 |----------------------------|--------------------|
 |-17---(17)b18r(17)-----15---|-17-----------------|
 |----------------------------|------17---16-------|
 |----------------------------|--------------------|
 |----------------------------|--------------------|
 |----------------------------|--------------------|

Eb Bb5/EN.C. Eb BbN.C. F N.C.
 
 PM-------| PM-------------| PM------------|
 |--------------------|------------------------|-----------------------|
 |--------------------|------------------------|-------------------o---|
 |--2-----------------|--2---------------------|---4--4----------------|
 |--3-5---------------|--3-5-------------------|---5--5----------------|
 |--3-3---------------|--3-3-------------------|---5--5------------o---|
 |--3-3----3--3-3-3-3-|--3-3--3--3-3---3-----3-|---5--5--5-5-5-5-5-----|

|
 
 |-----------15-------|------------------------|--------------------||
 |--------------------|------------------------|--------15---------o||
 |-14---16------------|-14---14-16---(16)b17r==|=(16)---------------||
 |--------------------|------------------------|--------------------||
 |--------------------|------------------------|-------------------o||
 |--------------------|------------------------|--------------------||

Outro
[Gm]  
 
 |--------|----------|-----------|------------|
 |--------|----------|-----------|------------|
 |-5------|-(5)------|-(5)-------|-(5)--------|
 |-7------|-(7)------|-(7)-------|-(7)--------|
 |-7------|-(7)------|-(7)-------|-(7)--------|
 |-7------|-(7)------|-(7)-------|-(7)--------|

|
 
 |--------|----------|--7--------|------------|
 |--------|----------|-------8---|------------|
 |-5------|-(5)------|-----------|--9---------|
 |-7------|-(7)------|-----------|-------10---|
 |-7------|-(7)------|-----------|------------|
 |-7------|-(7)------|-----------|------------|

[Eb] [A] [C]  
 
 |--------|----------|--------------|---------------|
 |--------|----------|--------------|---------------|
 |-2------|-(2)------|-4----(4)-(4)s|=7----(7)-(7)s=|
 |-3------|-(3)------|-x----(x)-(x)-|-x----(x)-(x)--|
 |-3------|-(3)------|-2----(2)-(2)s|=5----(5)-(5)s=|
 |-3------|-(3)------|--------------|---------------|

|
 
 |--------|----------|--------------|---------------|
 |--------|----------|--------------|---------------|
 |-2------|-(2)------|-4----(4)-(4)s|=7----(7)-(7)s=|
 |-3------|-(3)------|-x----(x)-(x)-|-x----(x)-(x)--|
 |-3------|-(3)------|-2----(2)-(2)s|=5----(5)-(5)s=|
 |-3------|-(3)------|--------------|---------------|

[D] [C]  
 
 |--------|----------|----------------|---------------|
 |--------|----------|----------------|---------------|
 |-9------|-(9)------|-(9)----(9)-(9)s|=7----(7)-(7)s=|
 |-x------|-(x)------|-(x)----(x)-(x)-|-x----(x)-(x)--|
 |-7------|-(7)------|-(7)----(7)-(7)s|=5----(5)-(5)s=|
 |--------|----------|----------------|---------------|

|
 
 |--------|----------|----------------|---------------|
 |--------|----------|----------------|---------------|
 |-9------|-(9)------|-(9)----(9)-(9)s|=7----(7)-(7)s=|
 |-x------|-(x)------|-(x)----(x)-(x)-|-x----(x)-(x)--|
 |-7------|-(7)------|-(7)----(7)-(7)s|=5----(5)-(5)s=|
 |--------|----------|----------------|---------------|

[Bb] [A]  
 
 |--------|----------|--------|--------|
 |--------|----------|--------|--------|
 |-5------|-(5)------|-4------|-(4)----|
 |-x------|-(x)------|-x------|-(x)----|
 |-3------|-(3)------|-2------|-(2)----|
 |--------|----------|--------|--------|

|
 
 |--------|----------|--------|--------|
 |--------|----------|--------|--------|
 |-5------|-(5)------|-4------|-(4)----|
 |-x------|-(x)------|-x------|-(x)----|
 |-3------|-(3)------|-2------|-(2)----|
 |--------|----------|--------|--------|

[G5]  
 
 |--------|----------|----------|----------|----------|--------*|
 |--------|----------|----------|----------|----------|--------*|
 |--------|----------|----------|----------|----------|--------*|
 |-7------|-(7)------|-(7)------|-(7)------|-(7)------|-(7)----*|
 |-7------|-(7)------|-(7)------|-(7)------|-(7)------|-(7)----*|
 |-7------|-(7)------|-(7)------|-(7)------|-(7)------|-(7)----*|

|
 
 |--------|----------|----------|----------|----------|--------*|
 |--------|----------|----------|----------|----------|--------*|
 |--------|----------|----------|----------|----------|--------*|
 |-7------|-(7)------|-(7)------|-(7)------|-(7)------|-(7)----*|
 |-7------|-(7)------|-(7)------|-(7)------|-(7)------|-(7)----*|
 |-7------|-(7)------|-(7)------|-(7)------|-(7)------|-(7)----*|

** Generated using Power Tab Editor by Brad Larsen: The Official Power Tab Web Site

Important: The song above is NOT stored on the Chordie server. The original song is hosted at www.guitaretab.com. Chordie works as a search engine and provides on-the-fly formatting. Chordie does not index songs against artists'/composers' will. To remove this song please click here.

Text color:
Chord color:
Chord grids: 
Font size:    
Page size: 

A Bb C C#5 C5 D D5 Dsus4/G Eb F F5 G5 Gm
Rate #1 of 2 versions

Login - add to songbook

SHARE PAGE  




You need to log in to post comments