Guitar Tabs, Chords and Lyrics
Server problems seems to be fixed. Chordie has been experiencing problems with songs disappearing. These issues now seems to be fixed, but still verifying the fix. If you find anything strange, please email admin@chordie.com.


Static Age  Misfits

"Static Age" ? 1:46
"TV Casualty" ? 2:23
"Some Kinda Hate" ? 2:00
"Last Caress" ? 1:55
"Return of the Fly" ? 1:34
"Hybrid Moments" ? 1:40
"We Are 138" ? 1:40
"Teenagers from Mars" ? 2:48
"Come Back" ? 4:57
"Angelfuck" ? 1:36
"Hollywood Babylon" ? 2:17
"Attitude" ? 1:28
"Bullet" ? 1:36
"Theme for a Jackal" ? 2:35
"She" ? 1:22
"Spinal Remains" ? 1:24
"In the Doorway" ? 1:24
1.STATIC-AGE
Riff 1: E chord for a while at opening of the song.
 
 E----------------------------|
 B----------------------------|
 G----------------------------|
 D-22222222-------------------|

A-22222222-55555555-7777777--|
E-00000000-33333333-5555555--| x 2
Riff 2:
 
 E--------------------------|
 B--------------------------|
 G--------------------------|
 D--------------------------|
 A-44444-33333-44444-33333--|
 E-22222-11111-22222-11111--| x's 2

Riff 3: Guitar 1 Guitar 2
 
 E------------------|---------------------------------|
 B------------------|-0-11-00-3-4-0--0-1111-2222-0000-|
 G------------------|---------------------------------|
 D-222222222222222--|---------------------------------|
 A-222222222222222--|---------------------------------|
 E-000000000000000--|---------------------------------|

0:28 - 1:13
Riff 1 x 2
Riff 2
Riff 3: Guitar 2
2.Tv Casuality
main riff)
 
 e|------------|
 B|------------|
 G|------------|
 D|------------|
 A|--6-6-6-6---|
 E|--4-4-4-4---|

(bassline)
 
 G|------------|
 D|------------|
 A|------7-6---|
 E|--4-4-------|

(chorus)
 
 e|--------------------------------------------------------------------------|
 B|--------------------------------------------------------------------------|
 G|--------------------------------------------------------------------------|
 D|--------------------------------------------------------------------------|
 A|--9--9--8-8-8--9--9--8-8-8--5/6-6-5/6-6-5/6-6-----------------------------|
 E|--7--7--6-6-6--7--7--6-6-6--3/4-4-3/4-4-3/4-4-----------------------------|

order:
main riff 24x
chorus 2x
main riff 32x
chorus 2x
main riff 32x
chorus 4x
3.Some Kinda Hate
riff:
 
 E|---------------------------------|---------------------------------|
 B|---------------------------------|---------------------------------|
 G|-5-----5-5-----5-5-----5-5---4---|-2-----2-2-----2-2-----2-2---4---|
 D|-5-----5-5-----5-5-----5-5---4---|-2-----2-2-----2-2-----2-2---4---|
 A|-3-----3-3-----3-3-----3-3---2---|-0-----0-0-----0-0-----0-0---2---|
 E+---------------------------------|---------------------------------+

| C B A B |
| |
 
 G+---------------------------------|---------------------------------+
 D|---------------------------------|---------------------------------|
 A|-3-----3-3-----3-3-----3-3---2---|-0-----0-0-----0-0-----0-0---2---|
 E|---------------------------------|---------------------------------|

solo:
 
 E|---------------------------------|---------------------------------|
 B|---------------------------------|---------------------------------|
 G|/A---A-A-A-A-G---9---9-9---9-9-9-|-7---5---7---5---2---2-2---2-2-2-|
 D|---------------------------------|---------------------------------|
 A|---------------------------------|---------------------------------|
 E|---------------------------------|---------------------------------|

Note: Due to space and clarity, the first two notes of the solo are
abbreviated. In actuality, A = 14th fret, G = 12th fret.
riff (4x)
F G (4x)
riff (3x)
F G (4x)
G# C# (4x)
riff w/guitar solo
riff (2x)
F G (4x)
=[C]==========
SOME KINDA HATE
by The Misfits
tabbed by Dan Croy
Triplasphere@aol.com
VERSE RIFF (repeat a lot)
 
 ---------------------------------|---------------------------------|
 ---------------------------------|---------------------------------|
 -5-----5-5-----5-5-----5-5---4---|-2-----2-2-----2-2-----2-2---4---|
 -5-----5-5-----5-5-----5-5---4---|-2-----2-2-----2-2-----2-2---4---|
 -3-----3-3-----3-3-----3-3---2---|-0-----0-0-----0-0-----0-0---2---|
 ---------------------------------|---------------------------------|

CHORUS RIFF
3x_______________________________then
 
 -----------------------------------|-------------|
 -----------------------------------|-------------|
 -----------------------------------|-------------|
 -3-3-3-3-3-3-3-3--5-5-5-5-5-5-5-5--|---3-----5---|
 -3-3-3-3-3-3-3-3--5-5-5-5-5-5-5-5--|---3-----5---|
 -1-1-1-1-1-1-1-1--3-3-3-3-3-3-3-3--|---1-----3---|

REPEAT VERSE
REPEAT CHORUS
INTERLUDE (4x)
 
 ---------------------------------|
 ---------------------------------|
 -----------------6-6-6-6-6-6-6-6-|
 -6-6-6-6-6-6-6-6-6-6-6-6-6-6-6-6-|
 -6-6-6-6-6-6-6-6-4-4-4-4-4-4-4-4-|
 -4-4-4-4-4-4-4-4-----------------|

GUITAR SOLO
 
 ---------------------|
 ---------------------|
 14--12--9--7-5-7-5-2-|
 ---------------------|
 ---------------------|
 ---------------------|

REPEAT VERSE
REPEAT CHORUS
end final chorus with:
 
 ------------------|
 ------------------|
 ------------------|
 ---3-----5-----3--|
 ---3-----5-----3--|
 ---1-----3-----1--|

4.Last Caress
Intro
 
 --------------------------------------------------------------------------
 --------------------------------------------------------------------------
 --------------------------------------------------------------------------
 -----5-------------------5---------10--12---10------7---------------------
 -----3------3----5-------3---------8---10---8-------5---------------------
 ------------1----3--------------------------------------------------------

Verse part 1 (x4)
 
 --------------------------------------------------------------------------
 --------------------------------------------------------------------------
 --------------------------------------------------------------------------
 ----5-5-5-5-5-5-5-5-5-5-5-5-5------10-----12------------------------------
 ----3-3-3-3-3-3-3-3-3-3-3-3-3-------8-----10------------------------------
 --------------------------------------------------------------------------

On the fourth time play (verse part II)
 
 --------------------------------------------------------------------------
 --------------------------------------------------------------------------
 --------------------------------------------------------------------------
 ----5-5-5-5-5-5-5-5-5-5-5-5-5------10-----12------------------------------
 ----3-3-3-3-3-3-3-3-3-3-3-3-3-------8-----10------------------------------
 --------------------------------------------------------------------------
 -------------------------------------------------------------------------------
 -------------------------------------------------------------------------------
 -------------------------------------------------------------------------------
 --10-10-10-10-10-10-10-10---7-7-7-7-7-7-7-7----5-5-5-5-5-5-5-5-5-5-5-5-5-5-5---
 --8--8--8--8--8--8--8--8----5-5-5-5-5-5-5-5----3-3-3-3-3-3-3-3-3-3-3-3-3-3-3---
 -------------------------------------------------------------------------------

Chorus
 
 -------------------------------------------------------------
 -------------------------------------------------------------
 -10-10-10-10-10-10-10-10---7-7-7-7-7-7-7-7---5-5-5---9-9-9---
 -10-10-10-10-10-10-10-10---7-7-7-7-7-7-7-7---5-5-5---9-9-9---
 -8--8--8--8--8--8--8--8----5-5-5-5-5-5-5-5---3-3-3---7-7-7---
 -------------------------------------------------------------
 ----------------------------------------------
 ----------------------------------------------
 -------------------10-10-10-10--7-7-7-7-------
 -7-7-7-7-7-7-7-7---10-10-10-10--7-7-7-7-------
 -7-7-7-7-7-7-7-7---8--8--8--8---5-5-5-5-------
 -5-5-5-5-5-5-5-5------------------------------

After Chorus (x2)
 
 --------------------------------------------------------------------------
 --------------------------------------------------------------------------
 --------------------------------------------------------------------------
 -----5-5-5-5-5-5-5-5-5-5-5-5----10-10-10--12--12-12-----------------------
 -----3-3-3-3-3-3-3-3-3-3-3-3-----8--8--8--10--10-10-----------------------
 --------------------------------------------------------------------------

then play:
verse part 1 (x2)
verse part II
Chorus
verse
chorus (on this chorus, he stops playing after the -7- on the E string)
[-7-] 
[-5-] 
the last part is the after Chorus (x8), and on the 8thj time he stops on the first -5-
[-3-] 
5.Return Of The Fly
Tuning: Standard
(bass intro/outro) I like playing the bass intro more than the guitar intro.
 
 e|--------------------|
 B|--------------------|
 G|--------------------|(4x)
 D|--------3-----------|
 A|--1--4--------3--4--|
 E|-----------2--------|

(guitar intro/outro)
 
 e|-------------------------------------------------|
 B|-------------------------------------------------|
 G|-------------------------------------------------|
 D|-------------------------------------------------|
 A|--8:--8\4:--4/8:--8\4:--4/8:--8\4:--4/8:--8\4:---|
 E|--6:--6\2:--2/6:--6\2:--2/6:--6\2:--2/6:--6\2:---|

(verse)
 
 e|-----------------------------|
 B|-----------------------------|
 G|-----------------------------|
 D|--3--3-3--3-3----------------|
 A|--1--1-1--1-1---4--4-4--4-4--|
 E|----------------2--2-2--2-2--|

(chorus a)
 
 e|-----------------------------|
 B|-----------------------------|
 G|-----------------------------|
 D|--9--9-9--9-9---7--7-7--7-7--|
 A|--7--7-7--7-7---5--5-5--5-5--|
 E|-----------------------------|

(chorus b)
 
 e|-----------------------------|
 B|-----------------------------|
 G|-----------------------------|
 D|--9--9-9--9-9---7-6-5-4------|
 A|--7--7-7--7-7---5-4-3-2------|
 E|-----------------------------|

order:
intro 1x
verse 4x
chorus a 3x
chorus b 1x
verse 4x
chorus a 7x
chorus b 1x
verse 12x
outro 1x
6.Hybrid Moments
Intro/Verse
 
 1|-------------------------------------------------|
 2|-------------------------------------------------|
 3|-------------------------------------------------|
 4|-77777777----------------------8-8-8-8--77777777-|
 5|-55555555--999999999--5-5-5-5--6-6-6-6--55555555-|
 6|-----------777777777--3-3-3-3--------------------|

Chorus
 
 1|---------------------------------------------------------------|
 2|---------------------------------------------------------------|
 3|---------------------------------------------------------------|
 4|-----------------------------7-7-7-7---------------------------|
 5|-9-9-9-9--77777777--5-5-5-5--5-5-5-5--7-7-7-7--5-5-5-5-7-7-7-7-|
 6|-7-7-7-7--55555555--3-3-3-3-----------5-5-5-5--3-3-3-3-5-5-5-5-|

Outro
 
 1|------------------------------------------|
 2|------------------------------------------|
 3|------------------------------------------|
 4|-77777777------------------------------7--|
 5|-55555555--99999999--5-5-5-5--7-7-7-7--5--|
 6|-----------77777777--3-3-3-3--5-5-5-5-----|

Song Form
Intro 2X's
Chorus once
Intro 2X's
Chorus once
Intro 2X's
Chorus once
Outro once
7.We Are 138
Intro:
 
 [---------------------]
 [---------------------]
 [-9-9-9-9-9-9--5-7----]
 [-9-9-9-9-9-9--5-7----]
 [-7-7-7-7-7-7--3-5----]
 [---------------------]

Verse:
 
 [---------------------]
 [---------------------]
 [-9999999999-5-7------]
 [-9999999999-5-7------]
 [-7777777777-3-5------]
 [---------------------]

"We are 138, we are 138"
Chorus:
 
 [---------------------]
 [---------------------]

[-555555555-777777777-] 
[-555555555-777777777-] 
[-333333333-555555555-] 
 
 [---------------------]

"We are..........138.."
Solo:
 
 e[-11h12-11h12-11h12-11h12-11h12-11h12-11h12-11h12-]
 e[-12-12-12-12-12-12-12-12-12b(1/2)-12b(1/2)-12b(full)-12b(full)-]

Outro:
 
 [------------------------------------------------------------------]
 [------------------------------------------------------------------]
 [-9-9-9-9--5-5-5-5--7-7-7-7--9-9-9-9-9-9-9-9--5-5-5-5--7-7-7-7--9~~]
 [-9-9-9-9--5-5-5-5--7-7-7-7--9-9-9-9-9-9-9-9--5-5-5-5--7-7-7-7--9~~]
 [-7-7-7-7--3-3-3-3--5-5-5-5--7-7-7-7-7-7-7-7--3-3-3-3--5-5-5-5--9~~]
 [------------------------------------------------------------------]

"8,8,8,8,8,8,8...."
8.Teenagers from Mars
MAIN RIFF (used as intro and verses)
 
 |------------------------------|
 |------------------------------|
 |------------------------------|
 |--5--5--5-5-5-6--6-6-6-6-6-3--|
 |--5--5--5-5-5-6--6-6-6-6-6-3--|
 |--3--3--3-3-3-4--4-4-4-4-4-1--|

PRECHORUS (4 times)
 
 |----------------------------------|
 |----------------------------------|
 |--6-6-6-6-6-6-6-6-----------------|
 |--6-6-6-6-6-6-6-6-6-6-6-6-6-6-6-6-|
 |--4-4-4-4-4-4-4-4-6-6-6-6-6-6-6-6-|
 |------------------4-4-4-4-4-4-4-4-|

CHORUS_______________________3x_|_then_______________________3x_|
 
 |-------------------------------|-------------------------------|
 |-------------------------------|-------------------------------|
 |-4--4--4-4-4-------------------|---------------9--9--9-9-9-9---|
 |-4--4--4-4-4---2--2--2-2-2-2---|-8--8--8-8-8---9--9--9-9-9-9---|
 |-2--2--2-2-2---2--2--2-2-2-2---|-8--8--8-8-8---7--7--7-7-7-7---|
 |---------------0--0--0-0-0-0---|-6--6--6-6-6-------------------|

REPEAT INTRO/VERSE
REPEAT PRECHORUS
REPEAT CHORUS
REPEAT INTRO/VERSE
REPEAT PRECHORUS
REPEAT CHORUS
OUTRO________________________3x_|_then________________until end_|
 
 |-------------------------------|-------------------------------|
 |-------------------------------|-------------------------------|
 |-4--4--4-4-4-------------------|---------------4--4--4-4-4-4---|
 |-4--4--4-4-4---2--2--2-2-2-2---|-7--7--7-7-7---4--4--4-4-4-4---|
 |-2--2--2-2-2---2--2--2-2-2-2---|-7--7--7-7-7---2--2--2-2-2-2---|
 |---------------0--0--0-0-0-0---|-5--5--5-5-5-------------------|

9.Come Back
 
 e-----------------
 B-----------------
 G-----------------

[D-222222222222222-]  
[A-222222222222222-]E-000000000000000-
 
 e------------------------------
 B------------------------------
 G-444444444444444--------------

D-2222222222222222222222222222- x2
[A-2222222222222222222222222222-]  
 
 E----------------0000000000000-
 e-----------------
 B-----------------
 G-----------------

[D-222222222222222-]  
[A-222222222222222-]E-000000000000000-
 
 e------------------------------
 B------------------------------
 G-444444444444444--------------

D-2222222222222222222222222222- x2
[A-2222222222222222222222222222-]  
 
 E----------------0000000000000-
 e------------------------------
 B------------------------------
 G------------------------------

D-5555555555555552222222222222- x8
[A-5555555555555552222222222222-]E-3333333333333330000000000000-
 
 e-----------------
 B-----------------
 G-----------------

D-222222222222222- On Bass do with G
A-000000000000000-
E-000000000000000-
 
 e----------------
 B----------------
 G----------------

[D-22222222222222-]  
[A-22222222222222-]E-00000000000000-
 
 e--------------------------------
 B--------------------------------
 G-44444444444444-----------------

D-222222222222222222222222222222- x2
[A-222222222222222222222222222222-]  
 
 E---------------0000000000000000-
 e-------------------------------
 B-------------------------------
 G-------------------------------

D555555555555522222222222222222- x12
[A333333333333322222222222222222-]E333333333333300000000000000000-
end on
e-----
[B-----]  
[G-----]  
[D--5--]  
[A--3--]  
[E--3--]  
10.Angelfuck
 
 e-------------------------------
 B-------------------------------
 G----------------7777777777777--

D-7777777777777775555555555555-- x2
[A-5555555555555555555555555555--]  
 
 E-555555555555555---------------
 e----------------------------------------------------------------
 B----------------------------------------------------------------
 G--------------------------------7777777777777777----------------

[D-44444444444444422222222222222227777777777777777222222222222222-]A-22222222222222222222222222222225555555555555555222222222222222- x1
 
 E-2222222222222220000000000000000----------------000000000000000-
 e--------------------------------
 B--------------------------------
 G----------------777777777777777-

D-777777777777777555555555555555- x2
[A-555555555555555555555555555555-]  
 
 E-555555555555555----------------
 e-----------------------------------------------------------------
 B-----------------------------------------------------------------
 G--------------------------------7777777777777777-----------------

D-44444444444444422222222222222225555555555555555222222222222222-- x1
[A-22222222222222222222222222222225555555555555555222222222222222--]  
 
 E-2222222222222220000000000000000----------------000000000000000--
 e-----------------------
 B-----------------------
 G-----------------7---7-
 D-77777777777777--5---5- x4
 A-55555555555555--5---5-
 E-55555555555555--------
 e---------------------------------
 B---------------------------------
 G----------------777777777777777--

D-777777777777777555555555555555-- x2
[A-555555555555555555555555555555--]  
 
 E-555555555555555-----------------
 e--------------------------------------------------------------
 B--------------------------------------------------------------
 G-------------------------------777777777777777----------------

D-444444444444444222222222222222555555555555555222222222222222- x2
[A-222222222222222222222222222222555555555555555222222222222222-]  
 
 E-222222222222222000000000000000---------------000000000000000-
 e------------------------------
 B------------------------------
 G-------------------7---7------
 D-777777777777777---5---5------ x4
 A-555555555555555---5---5------
 E-555555555555555--------------

e-----
[B-----]  
[G-----]  
[D--7--]  
[A--5--]  
[E--5--]  
11.Hollywood Babylon
Main Riff
 
 |---------|
 |---------|
 |---------|
 |---------|
 |---------|

|-0-0-3-0-|
Interlude
 
 |----------------------------------------------------------|
 |----------------------------------------------------------|
 |-2--2-2-2-2-3-3-3-3-2-2-2-2-------------------------------|
 |-2--2-2-2-2-3-3-3-3-2-2-2-2-------------------------------|
 |-0--0-0-0-0-1-1-1-1-0-0-0-0-2-2---------------------------|
 |----------------------------0-0-3-0-----------------------|

Chorus
 
 |-----------------------------------------------------------------|
 |-----------------------------------------------------------------|
 |---------------------------------3-3-3-3-3-3-3-3-----------------|
 |---------------------------------3-3-3-3-3-3-3-3-5-5-5-5-5-5-5-5-|
 |---------------------------------1-1-1-1-1-1-1-1-5-5-5-5-5-5-5-5-|
 |-0-0-3-0-0-0-3-0-0-0-3-0-0-0-3-0-----------------3-3-3-3-3-3-3-3-|

Bridge
 
 |----------------------------------------------------------|
 |----------------------------------------------------------|
 |-------------------------3-3------------------------------|
 |-------------------------3-3------------------------------|
 |-------------------------1-1------------------------------|
 |-0-0-3-0-0-0-3-0-0-0-3-0----------------------------------|

12.Attitude
 
 e---------------------------------- intro
 B----------------------------------

[G-77777777777777777777777777777777-]D-77777777777777777777777777777777- 1x
[A-55555555555555555555555555555555-]  
 
 E---------------------------------- 

pm ...
verse 1
 
 e-------------------
 B-------------------
 G-77777777---------- 

D-77777777-55555555- 4x
[A-55555555-55555555-]  
 
 E----------33333333- 

chorus
 
 e----------------------------------------------------------
 B----------------------------------------------------------
 G----------------------------------------------------------
 D-444444444444-555555555555-444444444444-55555555-77777777- 1x
 A-444444444444-555555555555-444444444444-55555555-77777777-
 E-222222222222-333333333333-222222222222-33333333-55555555-

verse 2
 
 e-------------------
 B-------------------
 G-77777777----------

D-77777777-77777777- 4x
[A-55555555-77777777-]  
 
 E----------55555555- 

chorus 1x
solo (b= bend)
 
 e-----------------------------------------------------------------
 B-14--14--14--14--14--14--14--14--12--12--12--12--12--12--12--12--
 G-17b-17b-17b-17b-17b-17b-17b-17b-15b-15b-15b-15b-15b-15b-15b-15b- 4x
 D-----------------------------------------------------------------
 A-----------------------------------------------------------------
 E----------------------------------------------------------------- 

verse 1 8x
intro 1x
13.Bullet
 
 ]------------------------------------------------------------|
 ]------------------------------------------------------------|
 ]-7-7-7-7-7-7-7-7-7-7-7-7-7-7--5-5--10-10--7-----------------|
 ]-7-7-7-7-7-7-7-7-7-7-7-7-7-7--5-5--10-10--7-----------------|
 ]-5-5-5-5-5-5-5-5-5-5-5-5-5-5--3-3---8--8--5-----------------|
 ]------------------------------------------------------------| x3 (three times)
 ]------------------------------------------------------------|
 ]------------------------------------------------------------|
 ]-7-7-7-7-7-7-7-7-7-7-7-7-7-7---5-5-5-5-5-5-5-5-5-5-5-5-5-5--|
 ]-7-7-7-7-7-7-7-7-7-7-7-7-7-7---5-5-5-5-5-5-5-5-5-5-5-5-5-5--|
 ]-5-5-5-5-5-5-5-5-5-5-5-5-5-5---3-3-3-3-3-3-3-3-3-3-3-3-3-3--|
 ]------------------------------------------------------------|
 ]------------------------------------------------------------|
 ]------------------------------------------------------------|
 ]-3-3-3-3-3-3-3-3--5-5-5-5-5-5-5-5--7-7-7-7-7-7-7-7-7-7-7-7--|
 ]-3-3-3-3-3-3-3-3--5-5-5-5-5-5-5-5--7-7-7-7-7-7-7-7-7-7-7-7--|
 ]-1-1-1-1-1-1-1-1--3-3-3-3-3-3-3-3--5-5-5-5-5-5-5-5-5-5-5-5--|
 ]------------------------------------------------------------| x1 (one time)
 ]------------------------------------------------------------|
 ]------------------------------------------------------------|
 ]-7-7-7-7-7-7-7-7-7-7-7-7-7-7--5-5--10-10--7-----------------|
 ]-5-5-5-5-5-5-5-5-5-5-5-5-5-5--5-5--10-10--7-----------------|
 ]-5-5-5-5-5-5-5-5-5-5-5-5-5-5--3-3---8--8--5-----------------|
 ]------------------------------------------------------------| x2 (two times)
 ]------------------------------------------------------------|
 ]------------------------------------------------------------|
 ]-7-7-7-7-7-7-7-7-7-7-7-7-7-7---5-5-5-5-5-5-5-5-5-5-5-5-5-5--|
 ]-5-5-5-5-5-5-5-5-5-5-5-5-5-5---5-5-5-5-5-5-5-5-5-5-5-5-5-5--|
 ]-5-5-5-5-5-5-5-5-5-5-5-5-5-5---3-3-3-3-3-3-3-3-3-3-3-3-3-3--|
 ]------------------------------------------------------------|
 ]------------------------------------------------------------|
 ]------------------------------------------------------------|
 ]-3-3-3-3-3-3-3-3--5-5-5-5-5-5-5-5--7-7-7-7-7-7-7-7-7-7-7-7--|
 ]-3-3-3-3-3-3-3-3--5-5-5-5-5-5-5-5--7-7-7-7-7-7-7-7-7-7-7-7--|
 ]-1-1-1-1-1-1-1-1--3-3-3-3-3-3-3-3--5-5-5-5-5-5-5-5-5-5-5-5--|
 ]------------------------------------------------------------| x1 (one time)
 ]------------------------------------------------------------|
 ]------------------------------------------------------------|
 ]-12-12-12-12-12-12-12-12--7-7-7-7-7-7-7-7-7-7-7-7-----------|
 ]-12-12-12-12-12-12-12-12--7-7-7-7-7-7-7-7-7-7-7-7-----------|
 ]-10-10-10-10-10-10-10-10--5-5-5-5-5-5-5-5-5-5-5-5-----------|
 ]------------------------------------------------------------| x17 (seventeen times)
 ]------------------------------------------------------------|
 ]------------------------------------------------------------|
 ]--5-5--10-10--7----5-5--10-10--7----5-5--10-10--7-7-5-7-----|
 ]--5-5--10-10--7----5-5--10-10--7----5-5--10-10--7-7-5-7-----|
 ]--3-3---8--8--5----3-3---8--8--5----3-3--10-10--5-5-3-5-----|
 ]------------------------------------------------------------| x1 (one time

14.Theme for a Jackal
bassline:
 
 G|-----------------| Bassline is repeated 102x. Guitar adds notes,
 D|-------------3-5-| noise and feedback in the key of Cm. After the
 A|-3-3-5-5-6-6-----| final chorus, there is a piano solo as the song
 E|-----------------| fades out.

15.She
(intro)
 
 e|------------------------------------------------|
 B|------------------------------------------------|
 G|------------------------------------------------|
 D|-------------------7-x-5------------------------|
 A|--7-7-7-7-7-7-7-7--5-x-3--5-5-5-5-5--7-7-7-7-7--|
 E|--5-5-5-5-5-5-5-5---------3-3-3-3-3--5-5-5-5-5--|

(verse)
 
 e|----------------------------------------------|
 B|----------------------------------------------|
 G|----------------------------------------------|
 D|----------------------------------------------|
 A|--7-7-7-7-7-7-7-7-7-7--5-5-5-5-5--7-7-7-7-7---|
 E|--5-5-5-5-5-5-5-5-5-5--3-3-3-3-3--5-5-5-5-5---|

(chorus)
 
 e|----------------------------------------|
 B|----------------------------------------|
 G|----------------------------------------|
 D|----------------------------------------|
 A|--7-77-77--5-55-55--3-33-33--5-55-55----|
 E|--5-55-55--3-33-33--1-11-11--3-33-33----|

(fill)
 
 e|------------------------------------------------|
 B|------------------------------------------------|
 G|------------------------------------------------|
 D|------------------------------------------------|
 A|--7-7-7-7-7-7-7-7-7-7-7-7-7-7-7-7-7-7-----------|
 E|--5-5-5-5-5-5-5-5-5-5-5-5-5-5-5-5-5-5-----------|

(riff 5)
 
 e|-------------------------------|
 B|-------------------------------|
 G|-------------------------------|
 D|-------------------------------|
 A|--5-5-5-5-5-5-5--7-7-7-7-7-7-7-|
 E|--3-3-3-3-3-3-3--5-5-5-5-5-5-5-|

(outro)
 
 e|------------------------------------------------|
 B|------------------------------------------------|
 G|------------------------------------------------|
 D|------------------------------------------------|
 A|--7-7-7-7-7-7-7-7-7-7-7-7-7-7-7-7-7-7:----------|
 E|--5-5-5-5-5-5-5-5-5-5-5-5-5-5-5-5-5-5:----------|

order:
intro 2x
verse 4x
chorus 2x
fill 1x
intro 2x
verse 2x
riff 5 2x
outro 1x
16.Spinal Remains
Tuning: Normal
Riff 1: A B
 
 E-------------------|--------------------------------------------------|
 B-------------------|--------------------------------------------------|
 G-------------------|--------------------------------------------------|
 D-------------------|--------------------------------------------------|
 A-3---3/5555--------|-8/101010--------8/10-8/10-8/10-8/10-101010101010-|
 E-1---1/3333-x's 8--|-6/88888- x's 5--6/8--6/8--6/8--6/8--888888888888-|

Riff 1: B
Riff 2:
 
 E------------------|
 B------------------|
 G------------------|
 D------------------|
 A-8-5-3-5--------5-|
 E-6-3-1-3 x's 4--3-|

Riff 1
Riff 2
17.In the Doorway
Riff 1:
 
 E---------------------------------------------|
 B---------------------------------------------|
 G---------------------------------------------|
 D-------------------9-10101010-999999-10101010|
 A-77777-55555-77777-7-8888888--777777-88888888|
 E-55555-33333-55555---------------------------|x's 3

Riff 2:
 
 E---------|
 B---------|
 G---------|
 D--------7|

A-77-777-5| x's 4
E-55-555--|
Riff 1 x's 2
Riff 3:
 
 E-----------------|
 B-----------------|
 G-----------------|
 D-----------------|

A-77777-7--33-3333| x's 5
E-55555-5--11-1111|
End:
[E--]  
[B--]  
[G--]  
[D--]  
[A-7]  
[E-5]  

Important: The song above is NOT stored on the Chordie server. The original song is hosted at www.guitaretab.com. Chordie works as a search engine and provides on-the-fly formatting. Chordie does not index songs against artists'/composers' will. To remove this song please click here.

Text color:
Chord color:
Chord grids: 
Font size:    
Page size: 

A-7 C E-5
Rate #1 of 1 versions

Jango Player

Login - add to songbook

SHARE PAGE  




You need to log in to post comments