Guitar Tabs, Chords and Lyrics
Server problems seems to be fixed. Chordie has been experiencing problems with songs disappearing. These issues now seems to be fixed, but still verifying the fix. If you find anything strange, please email admin@chordie.com.


I Am Yours  Misty Edwards

 
 --------------------------------------------------------------------

I AM YOURS - Misty Edwards
 
 --------------------------------------------------------------------

Listen to the song to find out what to repeat and when.
Intro
 
 e|-----------5---5----5--5p3--------------3-------------------|
 B|----[3]--3----3-------------3--------3------3---------------|
 G|---[2]--2-2--2-2-------------------0----------0-------------|
 D|--[0]--0----0-------0-----------(0)-------------0-----------|
 A|------------------------------------------------------------|
 E|------------------------------3--------3----------3---------|

Shapes: D G
 
 e|-----------5---5-----5--5p3--------------3------------------|
 B|----[3]--3----3-------------3--------3------3---------------|
 G|---[2]--2-2--2-2-------------------0----------0-------------|
 D|--[0]--0----0-------0-----------(0)-------------0-----------|
 A|------------------------------------------------------------|
 E|------------------------------3--------3----------3---------|

Though I sleep...
 
 e|-----------5---5----5--5p3--------------3-------------------|
 B|----[3]--3----3-------------3--------3------3---------------|
 G|---[2]--2-2--2-2-------------------0----------0-------------|
 D|--[0]--0----0-------0-----------(0)-------------0-----------|
 A|------------------------------------------------------------|
 E|------------------------------3--------3----------3---------|

Though it's night...
 
 e|----------------------0--------------------------3-------|
 B|----------------2--------------------------3-------------|
 G|----------2--------2-----------------0-------0-----------|
 D|---------2----2------2--------------0-(0)------0---------|
 A|--------0--(2)-------------------------------------------|
 E|----------------------------------3-------3--------------| (repeat)

It's been a long night... And I am hungry...
So I'll wa[Bm]it in the sti[A]llness agai[G]n
So I'll wa[Bm]it in the qui[A]et again[G]
For when I heard [D/F#]Your voice
When you said my[D] name
When I heard[Bm] Your voice
My hear[A]t, it yearned
In the middl[D/F#]e of the night
In the middle[G] of the night
In the middle[Bm] of the night
My heart, it y[A]earns
Though You're far [D/F#]away,
Still I'm here to sa[G]y
I am Your[Bm]s, I am You[A]rs
And I pay my [D/F#]vows, no turnin[G]g around[A]
I burn the br[D/F#]idges, they can[G]'t be foun[A]d
Chord shapes:
D: [xx0235] Bm: [x23342]
G: [3x0033] D/F#: [200232]
A: [x02220]
************************************
| [] play bracketed notes the first time you play the section only
| / slide up
| \ slide down
| h hammer-on
| p pull-off
| ~ vibrato
| + harmonic
| x Mute note
| b Bend
| pb Pre-bend
| br Bend release
| pbr Pre-bend release
| brb Bend release bend
************************************

Important: The song above is NOT stored on the Chordie server. The original song is hosted at www.guitaretab.com. Chordie works as a search engine and provides on-the-fly formatting. Chordie does not index songs against artists'/composers' will. To remove this song please click here.

Text color:
Chord color:
Chord grids: 
Font size:    
Page size: 

A Bm D D/F# G
Rate #0 of 6 versions

Jango Player

Login - add to songbook

SHARE PAGE  



You need to log in to post comments