Guitar Tabs, Chords and Lyrics
Major upgrade!! After one year development the new version of Chordie is now online! Please give feedback.


Gasoline  Moist

David Harrison
"Gasoline" by "Moist"
Album: "Creature"(1996)
This is a really good song and is also really good for guitar
so I hope you have fun with it. At first it might take you a
while to be able to play but once you get the hang of it it's
not bad. It was hard to tab but I finaly did it so make good
use of it. I am almost possitive it is correct but if there
are any mistakes, comment, corrections, or additions you would
like to submit to me feel free to e-mail me.
Intro:
 
 E|----------------------------------------||
 B|--------------------------3-------------||
 G|------4p2------4p2------0--0-2-2h4p2----||
 D|----2----2---2----2---2--2--0-0-----4p0-||
 A|-2h4-4----4-0-0----0-3-3----------------||
 E|----------------------------------------||

Verse:
 
 E|----------------------------------------||
 B|--------------------------3-------------||
 G|------4p2------4p2------0--0-2-2h4p2----||
 D|----2----2---2----2---2--2--0-0-----4p0-||
 A|-2h4-4----4-0-0----0-3-3----------------||
 E|----------------------------------------||
 E|----------------------------------------||
 B|--------------------------3-------------||
 G|------4p2------4p2------0--0-2-2h4p2----||
 D|----2----2---2----2---2--2--0-0-----4p0-||
 A|-2h4-4----4-0-0----0-3-3----------------||
 E|----------------------------------------||
 E|------------------------------------||
 B|-----------------2------------------||
 G|-------4p2------2-------4----4p2-2--||
 D|-----2----2---2---2----2---4----4---||
 A|--2h4-4----4-0-0---0-2----2-2-------||
 E|--------------------0-0-------------||
 E|--------------------------------------||
 B|-----------------------------0h2p0----||
 G|------4p2------4p2---------3------3---||
 D|----2----2---2----2------4--4------4--||
 A|-2h4-4----4-0-0----0---4------------4-||
 E|---------------------2----------------||

Chorus:
[A] [G#M] [C#M] [A] [F#]  
 
 E|--5--|--4--|--4--| |--5--|--2--||
 B|--5--|--4--|--5--| |--5--|--2--||
 G|--6--|--4--|--6--| 3X |--6--|--3--||
 D|--7--|--6--|--6--|THEN|--7--|--4--||
 A|--7--|--6--|--4--| |--7--|--4--||
 E|--5--|--4--|-----| |--5--|--2--||Interlude:
 E|------0-000------2-222------2-222------2-222-|
 B|------0-000------0-000------3-333------3-333-|
 G|----0-0-000----0-0-000----4-4-444----2-2-222-|Play 3x
 D|--2-2--------2-2--------0-0-0-000--0-0-0-000-| Then
 A|--2----------2----------0----------0---------|
 E|--0----------0-------------------------------|
 E|-----0-000------0-000------0-000-0~~~-||
 B|-----1-111------3-333--1-1-1-111-2~~~-||
 G|-0-0-0-000--0-0-0-000--2-2-2-222-2~~~-||
 D|-2-2--------2-2--------2-2-------2~~~-||
 A|-3----------3----------0---------0~~~-||
 E|--------------------------------------||

Ending:
 
 E|----22----||
 B|-0--33----||

G|-1~4441~--||
 
 D|----00--2-||
 A|--------2-||
 E|--------0-||

Here's the order:
Intro: 2x (00:00)
Verse: 1x (00:13)
Chorus: 1x (00:37)
Verse: 1x (01:01)
Chorus: 1x (01:26)
Interlude:1x (01:51)
Verse: 1x (02:16)
Chorus: 1x (02:41)
Ending: 1x (03:05)

Important: The song above is NOT stored on the Chordie server. The original song is hosted at www.guitaretab.com. Chordie works as a search engine and provides on-the-fly formatting. Chordie does not index songs against artists'/composers' will. To remove this song please click here.

Text color:
Chord color:
Chord grids: 
Font size:    
Page size: 

A C#m F# G#m
Rate #2 of 4 versions

Jango Player

Login - add to songbook

SHARE PAGE  




You need to log in to post comments