Guitar Tabs, Chords and Lyrics
Server problems seems to be fixed. Chordie has been experiencing problems with songs disappearing. These issues now seems to be fixed, but still verifying the fix. If you find anything strange, please email admin@chordie.com.


Haudan takaa  Mokoma

As recorded by Mokoma
Transcribed by zesar_1337
Gtr I (D A D G B E) - 'Kuisma'
Gtr II (D A D G B E) - 'Tuomo'
Gtr III (D A D G B E) - 'Melodia'
Q=180
[4/4] Gtr I
PM PM PM
Q E E E E E E
 
 |----------------------|
 |----------------------|
 |----------------------|
 |----------------------|
 |----12---10---12------|
 |-------0----0----0----|

|
| Gtr II
| PM PM PM
| Q E E E E E E
 
 |----------------------|
 |----------------------|
 |----------------------|
 |----------------------|
 |-----8----7----8------|
 |-------0----0----0----|

Gtr I
 
 PM----------------| PM PM PM

Q E E E E E E S S E E E E E E E
 
 |------------------|----------------------|
 |------------------|----------------------|
 |------------------|----------------------|
 |------------------|----------------------|
 |--8---------------|-------12---10---12---|
 |------0-0-0-0-0-0-|-0-0-0----0----0----0-|

|
| Gtr II
 
 | ~~~ PM----------------| PM PM PM

| Q E E E E E E S S E E E E E E E
 
 |------------------|----------------------|
 |------------------|----------------------|
 |------------------|----------------------|
 |------------------|----------------------|
 |-[5]--------------|--------8----7----8---|
 |------0-0-0-0-0-0-|-0-0-0----0----0----0-|
 PM------| PM PM PM PM

Q E E E E E E +E E E E E E E E
 
 |----------------|-----------------------|
 |----------------|-----------------------|
 |----------------|-----------------------|
 |----------------|-----------------------|
 |-8------------5-|-(5)---12---10---12----|
 |-8--8-8-8-8-8-5-|-(5)-5----0----0----0--|

|
 
 | PM------| PM PM PM PM

| Q E E E E E E +E E E E E E E E
 
 |----------------|-----------------------|
 |----------------|-----------------------|
 |----------------|-----------------------|
 |----------------|-----------------------|
 |-8------------5-|-(5)----8----7----8----|
 |-8--8-8-8-8-8-5-|-(5)-5----0----0----0--|

Gtr I
 
 PM----------------| PM PM PM

Q E E E E E E S S E E E E E E E
 
 |----------------|----------------------|
 |----------------|----------------------|
 |----------------|----------------------|
 |----------------|----------------------|
 |-8--------------|-------12---10---12---|
 |----0-0-0-0-0-0-|-0-0-0----0----0----0-|

|
| Gtr II
 
 | PM----------------| PM PM PM

| Q E E E E E E S S E E E E E E E
 
 |----------------|----------------------|
 |----------------|----------------------|
 |----------------|----------------------|
 |----------------|----------------------|
 |-5--------------|--------8----7----8---|
 |----0-0-0-0-0-0-|-0-0-0----0----0----0-|
 PM------| PM PM PM PM

Q E E E E E E +E E E E E E E E
 
 |----------------|-----------------------|
 |----------------|-----------------------|
 |----------------|-----------------------|
 |----------------|-----------------------|
 |-8------------5-|-(5)---12---10---12----|
 |-8--8-8-8-8-8-5-|-(5)-5----0----0----0--|

|
 
 | PM------| PM PM PM PM

| Q E E E E E E +E E E E E E E E
 
 |----------------|-----------------------|
 |----------------|-----------------------|
 |----------------|-----------------------|
 |----------------|-----------------------|
 |-8------------5-|-(5)----8----7----8----|
 |-8--8-8-8-8-8-5-|-(5)-5----0----0----0--|

Gtrs I, II
 
 PM------| PM| PM|

Q E E E E E E +E E E E Q E E
 
 |----------------|-------------------|
 |----------------|-------------------|
 |----------------|-------------------|
 |-7------------5-|-(5)-7-----10------|
 |-5------------3-|-(3)-5------8------|
 |----0-0-0-0-0---|-------0-0-----0-0-|

|
| Gtr III
| PM| PM PM
| Q E E E E E E E E E E Q Q
 
 |----------------|-------------------|
 |--------6p5---5-|-----6p5----8--6---|
 |----7-7-----7---|---------7---------|
 |----------------|-------------------|
 |----------------|-------------------|
 |----------------|-------------------|
 PM---------| PM PM PM PM

Q E E E E E E +E E E E E E E E
 
 |--------------------|-----------------------|
 |--------------------|-----------------------|
 |--------------------|-----------------------|
 |-10-----------------|-----------------------|
 |--8---------------5-|-(5)---8---7---8-------|
 |--8--8----8-8-8-8-5-|-(5)-5---0---0-----0---|

|
| Q Q E Q E +Q Q Q S S S S
 
 |--------------------|-----------------------|
 |-----8b10---8s6---8-|-(8)---6---5---5h6p5---|
 |--------------------|---------------------7-|
 |--------------------|-----------------------|
 |--------------------|-----------------------|
 |--------------------|-----------------------|

Gtr I
 
 PM------| PM| PM| PM-------| PM PM PM PM

Q E E E E E E +E E E E Q E E Q E E E E E E +E E E E E E E E
 
 |----------------|-------------------|-------------------|--------------------|
 |----------------|-------------------|-------------------|--------------------|
 |----------------|-------------------|-------------------|--------------------|
 |--------------5-|-(5)-7-----10------|-10----------------|--------------------|
 |-8------------3-|-(3)-5------8------|--8--------------5-|-(5)----8---7---8---|
 |----0-0-0-0-0---|-------0-0-----0-0-|--8---8-8--8-8-8-5-|-(5)-5----0---0---0-|

|
| Gtr II
 
 | PM------| PM| PM| PM-------| PM PM PM PM

| Q E E E E E E +E E E E Q E E Q E E E E E E +E E E E E E E E
 
 |----------------|-------------------|-------------------|--------------------|
 |----------------|-------------------|-------------------|--------------------|
 |----------------|-------------------|-------------------|--------------------|
 |-7------------5-|-(5)-7-----10------|-10----------------|--------------------|
 |-5------------3-|-(3)-5------8------|--8--------------5-|-(5)----8---7---8---|
 |----0-0-0-0-0---|-------0-0-----0-0-|--8---8-8--8-8-8-5-|-(5)-5----0---0---0-|

|
| Gtr III
| PM| PM PM
| Q E E E E E E E E E E Q Q Q. Q. Q +E Q. Q Q
 
 |----------------|-------------------|--------5----------|-----5----------5---|
 |--------6p5---5-|-----6p5----8--6---|--8------------8---|-(8)--------8-------|
 |----7-7-----7---|---------7---------|-------------------|--------------------|
 |----------------|-------------------|-------------------|--------------------|
 |----------------|-------------------|-------------------|--------------------|
 |----------------|-------------------|-------------------|--------------------|

Gtr I
 
 PM----------------| PM PM PM PM------| PM PM PM PM

Q E E E E E E S S E E E E E E E Q E E E E E E +E E E E E E E E
 
 ||-----------------|-------------------|----------------|--------------------||
 ||o----------------|-------------------|----------------|-------------------o||
 ||-----------------|-------------------|----------------|--------------------||
 ||-----------------|-------------------|----------------|--------------------||
 ||o-8--------------|-------8---7---8---|-5--5-5-5-5-5---|-------8---7---8---o||
 ||-----0-0-0-0-0-0-|-0-0-0---0---0---0-|--------------8-|-(8)-8---0---0---0--||

|
| Gtr II
 
 | PM----------------| PM PM PM PM------| PM PM PM PM

| Q E E E E E E S S E E E E E E E Q E E E E E E +E E E E E E E E
 
 ||-----------------|-------------------|----------------|--------------------||
 ||o----------------|-------------------|----------------|-------------------o||
 ||-----------------|-------------------|----------------|--------------------||
 ||-----------------|-------------------|----------------|--------------------||
 ||o-5--------------|-------8---7---8---|-8------------5-|-(5)---8---7---8---o||
 ||-----0-0-0-0-0-0-|-0-0-0---0---0---0-|-8--8-8-8-8-8-5-|-(5)-5---0---0---0--||

Gtrs I, II
 
 PM------| PM| PM| PM------| PM PM PM PM

Q E E E E E E +E E E E Q E E Q E E E E E E +E E E E E E E E
 
 |----------------|-------------------|-----------------|-------------------|
 |----------------|-------------------|-----------------|-------------------|
 |----------------|-------------------|-----------------|-------------------|
 |-7------------5-|-(5)-7-----10------|-10--------------|-------------------|
 |-5------------3-|-(3)-5------8------|--8------------5-|-(5)---8---7---8---|
 |----0-0-0-0-0---|-------0-0-----0-0-|--8--8-8-8-8-8-5-|-(5)-5---0---0---0-|

Gtr I
 
 PM------| PM| PM| PM------| PM PM PM PM

Q E E E E E E +E E E E Q E E Q E E E E E E +E E E E E E E E
 
 |----------------|-------------------|-----------------|-------------------|
 |----------------|-------------------|-----------------|-------------------|
 |----------------|-------------------|-----------------|-------------------|
 |--------------5-|-(5)-7-----10------|-10--------------|-------------------|
 |-8------------3-|-(3)-5------8------|--8------------5-|-(5)---8---7---8---|
 |----0-0-0-0-0---|-------0-0-----0-0-|--8--8-8-8-8-8-5-|-(5)-5---0---0---0-|

|
| Gtr II
 
 | PM------| PM| PM| PM------| PM PM PM PM

| Q E E E E E E +E E E E Q E E Q E E E E E E +E E E E E E E E
 
 |----------------|-------------------|-----------------|-------------------|
 |----------------|-------------------|-----------------|-------------------|
 |----------------|-------------------|-----------------|-------------------|
 |-7------------5-|-(5)-7-----10------|-10--------------|-------------------|
 |-5------------3-|-(3)-5------8------|--8------------5-|-(5)---8---7---8---|
 |----0-0-0-0-0---|-------0-0-----0-0-|--8--8-8-8-8-8-5-|-(5)-5---0---0---0-|

Gtrs I, II
PM| PM| PM| PM| PM| PM
Q E E Q E E Q E E Q E E E E E E E E Q +E E E E Q Q
 
 |---------------|---------------|------------------|-----------------------|
 |---------------|---------------|------------------|-----------------------|
 |---------------|---------------|------------------|-----------------------|
 |-7------7------|-7------7------|-5s7-----10---10--|-(10)-10-10-10-10--10--|
 |-5------5------|-5------5------|-3s5------8----8--|--(8)--8--8--8--8---8--|
 |----0-0----0-0-|----0-0----0-0-|-----0-0----0--8--|--(8)--8--8--8--8---8--|

Gtrs I, II
PM| PM| PM| PM| PM| PM
Q E E Q E E Q E E Q E E E E E E E E Q +E E E E Q Q
 
 |---------------|---------------|-----------------|-----------------------|
 |---------------|---------------|-----------------|-----------------------|
 |---------------|---------------|-----------------|-----------------------|
 |---------------|---------------|-----------------|-----------------------|
 |-5------5------|-5------5------|-3s5-----8----1--|--(1)--1--1--1--1---1--|
 |-5--5-5-5--5-5-|-5--5-5-5--5-5-|-3s5-5-5-8-0--1--|--(1)--1--1--1--1---1--|

|
| Gtr III
| W W H. Q +E E E E Q Q
 
 |---------------|---------------|-----------------|-----------------------|
 |---------------|---------------|-----------------|-----------------------|
 |---------------|---------------|-------------12--|-(12)-12-12-12-12--12--|
 |---------------|---------------|-----------------|-----------------------|
 |---------------|---------------|-------------10--|-(10)-10-10-10-10--10--|
 |---------------|---------------|-----------------|-----------------------|

Gtrs I, II
PM| PM| PM| PM|
Q E E Q E E Q E E Q E E
 
 |-----------------|-----------------|
 |-----------------|-----------------|
 |-----------------|-----------------|
 |--7-------7------|--7-------7------|
 |--5-------5------|--5-------5------|
 |-----0-0-----0-0-|-----0-0-----0-0-|

|
| Gtr III
| PM| PM| PM| PM|
| Q E E Q E E Q E E Q E E
 
 |-----------------|-----------------|
 |-----------------|-----------------|
 |-10------10------|-10------10------|
 |-----------------|-----------------|
 |--8--8-8--8--8-8-|--8--8-8--8--8-8-|
 |-----------------|-----------------|

PM| PM
E E E E E E Q +E E E E Q Q
 
 |--------------------|-----------------------|
 |--------------------|-----------------------|
 |--------------------|-----------------------|
 |-5s=7-----10----10--|-(10)-10-10-10-10--10--|
 |-3s=5------8-----8--|--(8)--8--8--8--8---8--|
 |------0-0-----0--8--|--(8)--8--8--8--8---8--|

|
| PM| PM
| E E E E E E Q +E E E E Q Q
 
 |--------------------|-----------------------|
 |--------------------|-----------------------|
 |-9s10-----12----14--|-(14)-14-14-14-14--14--|
 |--------------------|-----------------------|
 |-7s=8-8-8-10-10-12--|-(12)-12-12-12-12--12--|
 |--------------------|-----------------------|

Gtrs I, II
PM| PM| PM| PM| PM| PM
Q E E Q E E Q E E Q E E E E E E E E Q +Q E E E E E E
 
 |-----------------|-----------------|-------------------|--------------------|
 |-----------------|-----------------|-------------------|--------------------|
 |-----------------|-----------------|-------------------|--------------------|
 |-----------------|-----------------|-------------------|--------------------|
 |--5-------5------|--5-------5------|-3s=5------8----1--|--(1)--8----7---8---|
 |--5--5-5--5--5-5-|--5--5-5--5--5-5-|-3s=5-5-5--8-0--1--|--(1)-----0---0---0-|

|
| PM| PM| PM| PM| PM| PM
| Q E E Q E E Q E E Q E E E E E E E E Q +Q H.
 
 |-----------------|-----------------|-------------------|--------------------|
 |-----------------|-----------------|-------------------|--------------------|
 |-10------10------|-10------10------|-9s10-----10---12--|-(12)---------------|
 |-----------------|-----------------|-------------------|--------------------|
 |--8--8-8--8--8-8-|--8--8-8--8--8-8-|-7s=8-8-8--8-8-10--|-(10)---------------|
 |-----------------|-----------------|-------------------|--------------------|

Gtr I
 
 PM----------------| PM PM PM PM------| PM PM PM PM

Q E E E E E E S S E E E E E E E Q E E E E E E +E E E E E E E E
 
 ||-----------------|-------------------|----------------|--------------------||
 ||o----------------|-------------------|----------------|-------------------o||
 ||-----------------|-------------------|----------------|--------------------||
 ||-----------------|-------------------|----------------|--------------------||
 ||o-8--------------|-------8---7---8---|-5--5-5-5-5-5---|-------8---7---8---o||
 ||-----0-0-0-0-0-0-|-0-0-0---0---0---0-|--------------8-|-(8)-8---0---0---0--||

|
| Gtr II
 
 | PM----------------| PM PM PM PM------| PM PM PM PM

| Q E E E E E E S S E E E E E E E Q E E E E E E +E E E E E E E E
 
 ||-----------------|-------------------|----------------|--------------------||
 ||o----------------|-------------------|----------------|-------------------o||
 ||-----------------|-------------------|----------------|--------------------||
 ||-----------------|-------------------|----------------|--------------------||
 ||o-5--------------|-------8---7---8---|-8------------5-|-(5)---8---7---8---o||
 ||-----0-0-0-0-0-0-|-0-0-0---0---0---0-|-8--8-8-8-8-8-5-|-(5)-5---0---0---0--||

Gtrs I, II
 
 PM------| PM| PM| PM------| PM PM PM PM

Q E E E E E E +E E E E Q E E Q E E E E E E +E E E E E E E E
 
 |----------------|-------------------|-----------------|-------------------|
 |----------------|-------------------|-----------------|-------------------|
 |----------------|-------------------|-----------------|-------------------|
 |-7------------5-|-(5)-7-----10------|-10--------------|-------------------|
 |-5------------3-|-(3)-5------8------|--8------------5-|-(5)---8---7---8---|
 |----0-0-0-0-0---|-------0-0-----0-0-|--8--8-8-8-8-8-5-|-(5)-5---0---0---0-|

Gtr I
 
 PM------| PM| PM| PM------| PM PM PM PM

Q E E E E E E +E E E E Q E E Q E E E E E E +E E E E E E E E
 
 |----------------|-------------------|-----------------|-------------------|
 |----------------|-------------------|-----------------|-------------------|
 |----------------|-------------------|-----------------|-------------------|
 |--------------5-|-(5)-7-----10------|-10--------------|-------------------|
 |-8------------3-|-(3)-5------8------|--8------------5-|-(5)---8---7---8---|
 |----0-0-0-0-0---|-------0-0-----0-0-|--8--8-8-8-8-8-5-|-(5)-5---0---0---0-|

|
| Gtr II
 
 | PM------| PM| PM| PM------| PM PM PM PM

| Q E E E E E E +E E E E Q E E Q E E E E E E +E E E E E E E E
 
 |----------------|-------------------|-----------------|-------------------|
 |----------------|-------------------|-----------------|-------------------|
 |----------------|-------------------|-----------------|-------------------|
 |-7------------5-|-(5)-7-----10------|-10--------------|-------------------|
 |-5------------3-|-(3)-5------8------|--8------------5-|-(5)---8---7---8---|
 |----0-0-0-0-0---|-------0-0-----0-0-|--8--8-8-8-8-8-5-|-(5)-5---0---0---0-|

Gtrs I, II
PM| PM| PM| PM| PM| PM
Q E E Q E E Q E E Q E E E E E E E E Q +E E E E Q Q
 
 |---------------|---------------|------------------|-----------------------|
 |---------------|---------------|------------------|-----------------------|
 |---------------|---------------|------------------|-----------------------|
 |-7------7------|-7------7------|-5s7-----10---10--|-(10)-10-10-10-10--10--|
 |-5------5------|-5------5------|-3s5------8----8--|--(8)--8--8--8--8---8--|
 |----0-0----0-0-|----0-0----0-0-|-----0-0----0--8--|--(8)--8--8--8--8---8--|

Gtrs I, II
PM| PM| PM| PM| PM| PM
Q E E Q E E Q E E Q E E E E E E E E Q +E E E E Q Q
 
 |---------------|---------------|-----------------|-----------------------|
 |---------------|---------------|-----------------|-----------------------|
 |---------------|---------------|-----------------|-----------------------|
 |---------------|---------------|-----------------|-----------------------|
 |-5------5------|-5------5------|-3s5-----8----1--|--(1)--1--1--1--1---1--|
 |-5--5-5-5--5-5-|-5--5-5-5--5-5-|-3s5-5-5-8-0--1--|--(1)--1--1--1--1---1--|

|
| Gtr III
| W W H. Q +E E E E Q Q
 
 |---------------|---------------|-----------------|-----------------------|
 |---------------|---------------|-----------------|-----------------------|
 |---------------|---------------|-------------12--|-(12)-12-12-12-12--12--|
 |---------------|---------------|-----------------|-----------------------|
 |---------------|---------------|-------------10--|-(10)-10-10-10-10--10--|
 |---------------|---------------|-----------------|-----------------------|

Gtrs I, II
PM| PM| PM| PM|
Q E E Q E E Q E E Q E E
 
 |-----------------|-----------------|
 |-----------------|-----------------|
 |-----------------|-----------------|
 |--7-------7------|--7-------7------|
 |--5-------5------|--5-------5------|
 |-----0-0-----0-0-|-----0-0-----0-0-|

|
| Gtr III
| PM| PM| PM| PM|
| Q E E Q E E Q E E Q E E
 
 |-----------------|-----------------|
 |-----------------|-----------------|
 |-10------10------|-10------10------|
 |-----------------|-----------------|
 |--8--8-8--8--8-8-|--8--8-8--8--8-8-|
 |-----------------|-----------------|

PM| PM
E E E E E E Q +E E E E Q Q
 
 |--------------------|-----------------------|
 |--------------------|-----------------------|
 |--------------------|-----------------------|
 |-5s=7-----10----10--|-(10)-10-10-10-10--10--|
 |-3s=5------8-----8--|--(8)--8--8--8--8---8--|
 |------0-0-----0--8--|--(8)--8--8--8--8---8--|

|
| PM| PM
| E E E E E E Q +E E E E Q Q
 
 |--------------------|-----------------------|
 |--------------------|-----------------------|
 |-9s10-----12----14--|-(14)-14-14-14-14--14--|
 |--------------------|-----------------------|
 |-7s=8-8-8-10-10-12--|-(12)-12-12-12-12--12--|
 |--------------------|-----------------------|

Gtrs I, II
PM| PM| PM| PM| PM| PM
Q E E Q E E Q E E Q E E E E E E E E Q +W
 
 |-----------------|-----------------|-------------------|---------|
 |-----------------|-----------------|-------------------|---------|
 |-----------------|-----------------|-------------------|---------|
 |-----------------|-----------------|-------------------|---------|
 |--5-------5------|--5-------5------|-3s=5------8----1--|--(1)----|
 |--5--5-5--5--5-5-|--5--5-5--5--5-5-|-3s=5-5-5--8-0--1--|--(1)----|

|
| PM| PM| PM| PM| PM| PM
| Q E E Q E E Q E E Q E E E E E E E E Q +W
 
 |-----------------|-----------------|-------------------|---------|
 |-----------------|-----------------|-------------------|---------|
 |-10------10------|-10------10------|-9s10-----10---12--|-(12)----|
 |-----------------|-----------------|-------------------|---------|
 |--8--8-8--8--8-8-|--8--8-8--8--8-8-|-7s=8-8-8--8-8-10--|-(10)----|
 |-----------------|-----------------|-------------------|---------|

Gtr I
H H H H Q H Q +W
 
 |-----------|-----------|------------|--------|
 |-----------|-----------|------------|--------|
 |-----------|-----------|----2-------|--------|
 |-7----5----|-3----2----|-3-------3--|-(3)----|
 |-----------|-----------|------------|--------|
 |-----------|-----------|------------|--------|

|
| Gtr II
| H H H H Q H Q +W
 
 |-----------|-----------|------------|--------|
 |-----------|-----------|------------|--------|
 |-----------|-----------|------------|--------|
 |-----------|-----------|------------|--------|
 |-8----7----|-5----3----|-5--8----1--|-(1)----|
 |-----------|-----------|------------|--------|

Gtr I
~~~~~
H H H H Q H Q +W
 
 |-----------|-----------|-----------------|--------|
 |-----------|-----------|-----------------|--------|
 |-7----5----|-3----2----|-3---[3]b5----3--|-(3)----|
 |-----------|-----------|-----------------|--------|
 |-----------|-----------|-----------------|--------|
 |-----------|-----------|-----------------|--------|

|
| Gtr II
| H H H H H. Q +W
 
 |-----------|-----------|-----------------|--------|
 |-----------|-----------|-----------------|--------|
 |-----------|-----------|-----------------|--------|
 |-----------|-----------|-----------------|--------|
 |-----------|-----------|-----------------|--------|
 |-8----7----|-5----3----|-5------------1--|-(1)----|

Gtr I
H H H H Q H Q +W
 
 |-----------|-----------|------------|--------|
 |-----------|-----------|------------|--------|
 |-----------|-----------|----2-------|--------|
 |-7----5----|-3----2----|-3-------3--|-(3)----|
 |-----------|-----------|------------|--------|
 |-----------|-----------|------------|--------|

|
| Gtr II
| H H H H Q H Q +W
 
 |-----------|-----------|------------|--------|
 |-----------|-----------|------------|--------|
 |-----------|-----------|------------|--------|
 |-----------|-----------|------------|--------|
 |-8----7----|-5----3----|-5--8----1--|-(1)----|
 |-----------|-----------|------------|--------|

Gtr I
~~~~~
H H H H Q H Q +W +W
 
 |-----------|-----------|-----------------|------------|--------|
 |-----------|-----------|-----------------|------------|--------|
 |-7----5----|-3----2----|-3---[3]b5----3--|-(3)--------|-(3)----|
 |-----------|-----------|-----------------|------------|--------|
 |-----------|-----------|-----------------|------------|--------|
 |-----------|-----------|-----------------|------------|--------|

|
| Gtr II
| H H H H H. Q +W +W
 
 |-----------|-----------|-----------------|------------|--------|
 |-----------|-----------|-----------------|------------|--------|
 |-----------|-----------|-----------------|------------|--------|
 |-----------|-----------|--------------1--|-(1)--------|-(1)----|
 |-----------|-----------|--------------1--|-(1)--------|-(1)----|
 |-8----7----|-5----3----|-5------------1--|-(1)--------|-(1)----|

Gtrs I, II
 
 PM--------------------| PM PM PM

E E E E E E S S E S S E E E E E E E
 
 |-------------------|---------------------|
 |-------------------|---------------------|
 |-------------------|---------------------|
 |-7-----------------|-------10---9---10---|
 |-5-----------------|--------8---7----8---|
 |---0-0-0-0-0-0-0-0-|-0-0-0----0---0----0-|
 PM--------------------| PM PM PM

E E E E E E S S E S S E E E E E E E
 
 |--------------------|---------------------|
 |--------------------|---------------------|
 |--------------------|---------------------|
 |-12-----------------|-------10---9---10---|
 |-10-----------------|--------8---7----8---|
 |----0-0-0-0-0-0-0-0-|-0-0-0----0---0----0-|

Gtr I
 
 PM--------------------| PM PM PM

E E E E E E S S E S S E E E E E E E
 
 |-------------------|---------------------|
 |-------------------|---------------------|
 |-------------------|---------------------|
 |-7-----------------|-------10---9---10---|
 |-5-----------------|--------8---7----8---|
 |---0-0-0-0-0-0-0-0-|-0-0-0----0---0----0-|

|
| Gtr II
 
 | PM--------------------| PM PM PM

| E E E E E E S S E S S E E E E E E E
 
 |-------------------|---------------------|
 |-------------------|---------------------|
 |-------------------|---------------------|
 |-7-----------------|-------10---9---10---|
 |-5-----------------|--------8---7----8---|
 |---0-0-0-0-0-0-0-0-|-0-0-0----0---0----0-|
 PM--------------------| PM PM PM

E E E E E E S S E S S E E E E E E E
 
 |--------------------|----------------------|
 |--------------------|----------------------|
 |--------------------|----------------------|
 |-12-----------------|----------------------|
 |-10-----------------|-------12---10---12---|
 |----0-0-0-0-0-0-0-0-|-0-0-0----0----0----0-|

|
 
 | PM--------------------| PM PM PM

| E E E E E E S S E S S E E E E E E E
 
 |--------------------|----------------------|
 |--------------------|----------------------|
 |--------------------|----------------------|
 |-12-----------------|----------------------|
 |-10-----------------|--------8----7----8---|
 |----0-0-0-0-0-0-0-0-|-0-0-0----0----0----0-|

Gtr I
PM PM PM PM PM PM PM PM
[E] [E] [E] [E] [E] [E] [E] [E] [E] [E] [E] [E] [E] [E] [E] [E]  
 
 |--------------------|---------------------|
 |--------------------|---------------------|
 |--------------------|---------------------|
 |--------------------|---------------------|
 |-8---12---10---12---|-13---12---10---12---|
 |---0----0----0----0-|----0----0----0----0-|

|
| Gtr II
| PM PM PM PM PM PM PM PM
| E E E E E E E E E E E E E E E E
 
 |--------------------|---------------------|
 |--------------------|---------------------|
 |--------------------|---------------------|
 |--------------------|---------------------|
 |-5----8----7----8---|-10----8----7----8---|
 |---0----0----0----0-|----0----0----0----0-|

PM PM PM PM PM PM PM PM
[E] [E] [E] [E] [E] [E] [E] [E] [E] [E] [E] [E] [E] [E] [E] [E]  
 
 |--------------------|--------------------|
 |--------------------|--------------------|
 |--------------------|--------------------|
 |--------------------|--------------------|
 |-8---12---10---12---|-8---12---10---12---|
 |---0----0----0----0-|---0----0----0----0-|

|
| PM PM PM PM PM PM PM PM
| E E E E E E E E E E E E E E E E
 
 |--------------------|--------------------|
 |--------------------|--------------------|
 |--------------------|--------------------|
 |--------------------|--------------------|
 |-5----8----7----8---|-4----8----7----8---|
 |---0----0----0----0-|---0----0----0----0-|

Gtr I
PM PM PM PM PM PM PM PM PM PM PM PM
[E] [E] [E] [E] [E] [E] [E] [E] [E] [E] [E] [E] [E] [E] [E] [E] [E] [E] [E] [E] [E] [E] [E] [E]  
 
 |--------------------|---------------------|--------------------|
 |--------------------|---------------------|--------------------|
 |--------------------|---------------------|--------------------|
 |--------------------|---------------------|--------------------|
 |-8---12---10---12---|-13---12---10---12---|-8---12---10---12---|
 |---0----0----0----0-|----0----0----0----0-|---0----0----0----0-|

|
| Gtr II
| PM PM PM PM PM PM PM PM PM PM PM PM
| E E E E E E E E E E E E E E E E E E E E E E E E
 
 |--------------------|---------------------|--------------------|
 |--------------------|---------------------|--------------------|
 |--------------------|---------------------|--------------------|
 |--------------------|---------------------|--------------------|
 |-5----8----7----8---|-10----8----7----8---|-5----8----7----8---|
 |---0----0----0----0-|----0----0----0----0-|---0----0----0----0-|

Gtrs I, II
PM| PM| PM| PM|
Q E E Q E E Q E E Q E E
 
 |-----------------|-----------------|
 |-----------------|-----------------|
 |-----------------|-----------------|
 |--6-------6------|--6-------6------|
 |--4--4-4--4--4-4-|--4--4-4--4--4-4-|
 |--6--6-6--6--6-6-|--6--6-6--6--6-6-|

|
| Gtr III
| PM| PM| PM| PM|
| Q E E Q E E Q E E Q E E
 
 |-----------------|-----------------|
 |-----------------|-----------------|
 |-10------10------|-10------10------|
 |-----------------|-----------------|
 |--8--8-8--8--8-8-|--8--8-8--8--8-8-|
 |-----------------|-----------------|

PM| PM| PM| PM|
[E] [E] [E] [E] [E] [E] [E] [E] [E] [E] [E] [E] [E] [E] [E] [E]  
 
 |-------------------------|-------------------------|
 |-------------------------|-------------------------|
 |-10s12-12-12-12s13-13-13-|-13s15-15-15-15s17-17-17-|
 |-------------------------|-------------------------|
 |--8s10-10-10-10s11-11-11-|-11s13-13-13-13s15-15-15-|
 |-------------------------|-------------------------|

|
| PM| PM| PM| PM|
| E E E E E E E E E E E E E E E E
 
 |-------------------------|-------------------------|
 |-------------------------|-------------------------|
 |-10s12-12-12-12s13-13-13-|-13s15-15-15-15s17-17-17-|
 |-------------------------|-------------------------|
 |--8s10-10-10-10s11-11-11-|-11s13-13-13-13s15-15-15-|
 |-------------------------|-------------------------|

Gtrs I, II
PM| PM| PM| PM|
Q E E Q E E Q E E Q E E
 
 |-----------------|-----------------|
 |-----------------|-----------------|
 |-----------------|-----------------|
 |--7-------7------|--7-------7------|
 |--5-------5------|--5-------5------|
 |-----0-0-----0-0-|-----0-0-----0-0-|

|
| Gtr III
| PM| PM| PM| PM|
| Q E E Q E E Q E E Q E E
 
 |-----------------|-----------------|
 |-----------------|-----------------|
 |-10------10------|-10------10------|
 |-----------------|-----------------|
 |--8--8-8--8--8-8-|--8--8-8--8--8-8-|
 |-----------------|-----------------|

PM| PM
E E E E E E Q +E E E E Q Q
 
 |--------------------|-----------------------|
 |--------------------|-----------------------|
 |--------------------|-----------------------|
 |-5s=7-----10----10--|-(10)-10-10-10-10--10--|
 |-3s=5------8-----8--|--(8)--8--8--8--8---8--|
 |------0-0-----0--8--|--(8)--8--8--8--8---8--|

|
| PM| PM
| E E E E E E Q +E E E E Q Q
 
 |--------------------|-----------------------|
 |--------------------|-----------------------|
 |-9s10-----12----14--|-(14)-14-14-14-14--14--|
 |--------------------|-----------------------|
 |-7s=8-8-8-10-10-12--|-(12)-12-12-12-12--12--|
 |--------------------|-----------------------|

Gtrs I, II
PM| PM| PM| PM|
Q E E Q E E Q E E Q E E
 
 |-----------------|-----------------|
 |-----------------|-----------------|
 |-----------------|-----------------|
 |-----------------|-----------------|
 |--5-------5------|--5-------5------|
 |--5--5-5--5--5-5-|--5--5-5--5--5-5-|

|
| PM| PM| PM| PM|
| Q E E Q E E Q E E Q E E
 
 |-----------------|-----------------|
 |-----------------|-----------------|
 |-10------10------|-10------10------|
 |-----------------|-----------------|
 |--8--8-8--8--8-8-|--8--8-8--8--8-8-|
 |-----------------|-----------------|

PM| PM
E E E E E E Q +E E E E Q Q
 
 |-------------------|-----------------------|
 |-------------------|-----------------------|
 |-------------------|-----------------------|
 |-------------------|-----------------------|
 |-3s=5------8----1--|--(1)--1--1--1--1---1--|
 |-3s=5-5-5--8-0--1--|--(1)--1--1--1--1---1--|

|
| PM| PM
| E E E E E E Q +E E E E Q Q
 
 |-------------------|-----------------------|
 |-------------------|-----------------------|
 |-9s10-----10---12--|-(12)-12-12-12-12--12--|
 |-------------------|-----------------------|
 |-7s=8-8-8--8-8-10--|-(10)-10-10-10-10--10--|
 |-------------------|-----------------------|

Gtrs I, II
PM| PM| PM| PM|
Q E E Q E E Q E E Q E E
 
 |-----------------|-----------------|
 |-----------------|-----------------|
 |-----------------|-----------------|
 |--7-------7------|--7-------7------|
 |--5-------5------|--5-------5------|
 |-----0-0-----0-0-|-----0-0-----0-0-|

|
| PM| PM| PM| PM|
| Q E E Q E E Q E E Q E E
 
 |-----------------|-----------------|
 |-----------------|-----------------|
 |-10------10------|-10------10------|
 |-----------------|-----------------|
 |--8--8-8--8--8-8-|--8--8-8--8--8-8-|
 |-----------------|-----------------|

PM| PM
E E E E E E Q +E E E E Q Q
 
 |--------------------|-----------------------|
 |--------------------|-----------------------|
 |--------------------|-----------------------|
 |-5s=7-----10----10--|-(10)-10-10-10-10--10--|
 |-3s=5------8-----8--|--(8)--8--8--8--8---8--|
 |------0-0-----0--8--|--(8)--8--8--8--8---8--|

|
| PM| PM
| E E E E E E Q +E E E E Q Q
 
 |--------------------|-----------------------|
 |--------------------|-----------------------|
 |-9s10-----12----14--|-(14)-14-14-14-14--14--|
 |--------------------|-----------------------|
 |-7s=8-8-8-10-10-12--|-(12)-12-12-12-12--12--|
 |--------------------|-----------------------|

Gtrs I, II
PM| PM| PM| PM| PM| PM
Q E E Q E E Q E E Q E E E E E E E E Q +W
 
 |-----------------|-----------------|-------------------|---------|
 |-----------------|-----------------|-------------------|---------|
 |-----------------|-----------------|-------------------|---------|
 |-----------------|-----------------|-------------------|---------|
 |--5-------5------|--5-------5------|-3s=5------8----1--|--(1)----|
 |--5--5-5--5--5-5-|--5--5-5--5--5-5-|-3s=5-5-5--8-0--1--|--(1)----|

|
| PM| PM| PM| PM| PM| PM
| Q E E Q E E Q E E Q E E E E E E E E Q +W
 
 |-----------------|-----------------|-------------------|---------|
 |-----------------|-----------------|-------------------|---------|
 |-10------10------|-10------10------|-9s10-----10---12--|-(12)----|
 |-----------------|-----------------|-------------------|---------|
 |--8--8-8--8--8-8-|--8--8-8--8--8-8-|-7s=8-8-8--8-8-10--|-(10)----|
 |-----------------|-----------------|-------------------|---------|

Gtr I
H H H H Q H Q +W
 
 |-----------|-----------|------------|--------|
 |-----------|-----------|------------|--------|
 |-----------|-----------|----2-------|--------|
 |-7----5----|-3----2----|-3-------3--|-(3)----|
 |-----------|-----------|------------|--------|
 |-----------|-----------|------------|--------|

|
| Gtr II
| H H H H Q H Q +W
 
 |-----------|-----------|------------|--------|
 |-----------|-----------|------------|--------|
 |-----------|-----------|------------|--------|
 |-----------|-----------|------------|--------|
 |-8----7----|-5----3----|-5--8----1--|-(1)----|
 |-----------|-----------|------------|--------|

Gtr I
~~~~~
H H H H Q H Q +W
 
 |-----------|-----------|-----------------|--------|
 |-----------|-----------|-----------------|--------|
 |-7----5----|-3----2----|-3---[3]b5----3--|-(3)----|
 |-----------|-----------|-----------------|--------|
 |-----------|-----------|-----------------|--------|
 |-----------|-----------|-----------------|--------|

|
| Gtr II
| H H H H H. Q +W
 
 |-----------|-----------|-----------------|--------|
 |-----------|-----------|-----------------|--------|
 |-----------|-----------|-----------------|--------|
 |-----------|-----------|-----------------|--------|
 |-----------|-----------|-----------------|--------|
 |-8----7----|-5----3----|-5------------1--|-(1)----|

Gtr I
H H H H Q H Q +W
 
 |-----------|-----------|------------|--------|
 |-----------|-----------|------------|--------|
 |-----------|-----------|----2-------|--------|
 |-7----5----|-3----2----|-3-------3--|-(3)----|
 |-----------|-----------|------------|--------|
 |-----------|-----------|------------|--------|

|
| Gtr II
| H H H H Q H Q +W
 
 |-----------|-----------|------------|--------|
 |-----------|-----------|------------|--------|
 |-----------|-----------|------------|--------|
 |-----------|-----------|------------|--------|
 |-8----7----|-5----3----|-5--8----1--|-(1)----|
 |-----------|-----------|------------|--------|

Gtr I
~~~~~
H H H H Q H Q +W +W
 
 |-----------|-----------|-----------------|------------|--------|
 |-----------|-----------|-----------------|------------|--------|
 |-7----5----|-3----2----|-3---[3]b5----3--|-(3)--------|-(3)----|
 |-----------|-----------|-----------------|------------|--------|
 |-----------|-----------|-----------------|------------|--------|
 |-----------|-----------|-----------------|------------|--------|

|
| Gtr II
| H H H H H. Q +W +W
 
 |-----------|-----------|-----------------|------------|--------|
 |-----------|-----------|-----------------|------------|--------|
 |-----------|-----------|-----------------|------------|--------|
 |-----------|-----------|--------------1--|-(1)--------|-(1)----|
 |-----------|-----------|--------------1--|-(1)--------|-(1)----|
 |-8----7----|-5----3----|-5------------1--|-(1)--------|-(1)----|

Gtr I
+Q E E E E E E W
 
 |------------------|--------*|
 |------------------|--------*|
 |-(3)--------------|--------*|
 |------------------|-10\----*|
 |------8---7---8---|--8\----*|
 |--------0---0---0-|--------*|

|
| Gtr II
| +Q E E E E E E W
 
 |------------------|--------*|
 |------------------|--------*|
 |------------------|--------*|
 |-(1)--------------|--7\----*|
 |-(1)--8---7---8---|--5\----*|
 |-(1)----0---0---0-|--------*|

Duration Legend
 
 ---------------
 W - whole; H - half; Q - quarter; E - 8th; S - 16th; T - 32nd; X - 64th; a - acciaccatura

+ - note tied to previous; . - note dotted; .. - note double dotted
Uncapitalized letters represent notes that are staccato (1/2 duration)
Irregular groupings are notated above the duration line
Duration letters will always appear directly above the note/fret number it represents the
duration for. Duration letters with no fret number below them represent rests. Multi-
bar rests are notated in the form Wxn, where n is the number of bars to rest for. Low
melody durations appear below the staff
Tablature Legend
 
 ----------------

h - hammer-on
p - pull-off
b - bend
pb - pre-bend
r - bend release (if no number after the r, then release immediately)
/\ - slide into or out of (from/to "nowhere")
s - legato slide
S - shift slide
- natural harmonic
[n] - artificial harmonic
n(n) - tapped harmonic
~ - vibrato
tr - trill
T - tap
TP - trem. picking
PM - palm muting
\n/ - tremolo bar dip; n = amount to dip
\n - tremolo bar down
n/ - tremolo bar up
/n\ - tremolo bar inverted dip
= - hold bend; also acts as connecting device for hammers/pulls
- volume swell (louder/softer)
x - on rhythm slash represents muted slash
o - on rhythm slash represents single note slash
Misc Legend
 
 -----------

| - bar
|| - double bar
||o - repeat start
o|| - repeat end
*| - double bar (ending)
: - bar (freetime)
$ - Segno
& - Coda
Tempo markers - = BPM(8/16=s8/s16), where s8 = swing 8ths, s16 = swing 16ths

Important: The song above is NOT stored on the Chordie server. The original song is hosted at www.guitaretab.com. Chordie works as a search engine and provides on-the-fly formatting. Chordie does not index songs against artists'/composers' will. To remove this song please click here.

Text color:
Chord color:
Chord grids: 
Font size:    
Page size: 

E
Rate #1 of 2 versions

Jango Player

Login - add to songbook

SHARE PAGE  



You need to log in to post comments