Guitar Tabs, Chords and Lyrics
Login is temporarily disabled for some users. Do not panic. Will be back in an hour or two. DO NOT REREGISTER!!


Hyinen syli   Mokoma

 
 |------------------|
 |------------------|
 |------------------|
 |------------------|
 |-----------0-0----|
 |-----------0-0----|

 


 


 Gtrs I, II


 

 
 PM-----------------------------------------

 


 E. E. E E E S S S S S E S E E E E E S S


 

 
 ||----------------------|---------------------|
 ||o---------------------|---------------------|
 ||----------------------|---------------------|
 ||----------------------|---------------------|
 ||o-0--0--0-0-0-0-0-0-0-|-0-0-0-0-0-0-0---0-0-|
 ||--0--0--0-0-0-0-0-0-0-|-0-0-0-0-0-0-0---0-0-|
 -----------------------------------------|

 


 E. E. E E E S S S S S E S E E E E E S S


 

 
 |---------------------|------------------------||
 |---------------------|-----------------------o||
 |---------------------|------------------------||
 |---------------------|------------------------||
 |-0--0--0-0-0-0-0-0-0-|-0-0-0-0-0-0-0---0-0---o||
 |-0--0--0-0-0-0-0-0-0-|-0-0-0-0-0-0-0---0-0----||

 


 


 Gtrs I, II


 

 
 PM-------------------------------------------

 


 E. E. E E E S S S S S E S E E E E E S S


 

 
 |---------------------|-----------------------|
 |---------------------|-----------------------|
 |---------------------|-----------------------|
 |---------------------|-----------------------|
 |-0--0--0-0-0-0-0-0-0-|--0--0-0-0-0-0-0---0-0-|
 |-0--0--0-0-0-0-0-0-0-|--0--0-0-0-0-0-0---0-0-|

 


 |


 | Gtr III


 | W +W


 

 
 |---------------------|-----------------------|
 |---------------------|-----------------------|
 |---------------------|-----------------------|
 |-7-------------------|-(7)-------------------|
 |-5-------------------|-(5)-------------------|
 |---------------------|-----------------------|

 


 |


 | Gtr IV


 | W +W


 

 
 |---------------------|-----------------------|
 |---------------------|-----------------------|
 |-7-------------------|-(7)-------------------|
 |---------------------|-----------------------|
 |-5-------------------|-(5)-------------------|
 |---------------------|-----------------------|
 -------------------------------------------|

 


 E. E. E E E S S S S S E S E E E E E S S


 

 
 |---------------------|-----------------------|
 |---------------------|-----------------------|
 |---------------------|-----------------------|
 |---------------------|-----------------------|
 |-0--0--0-0-0-0-0-0-0-|--0--0-0-0-0-0-0---0-0-|
 |-0--0--0-0-0-0-0-0-0-|--0--0-0-0-0-0-0---0-0-|

 


 |


 | W +W


 

 
 |---------------------|-----------------------|
 |---------------------|-----------------------|
 |---------------------|-----------------------|
 |-4-------------------|-(4)-------------------|
 |-2-------------------|-(2)-------------------|
 |---------------------|-----------------------|

 


 |


 | W +W


 

 
 |---------------------|-----------------------|
 |---------------------|-----------------------|
 |-4-------------------|-(4)-------------------|
 |---------------------|-----------------------|
 |-2-------------------|-(2)-------------------|
 |---------------------|-----------------------|

 


 


 Gtrs I, II


 

 
 PM-------------------------------------------

 


 E. E. E E E S S S S S E S E E E E E S S


 

 
 |---------------------|-----------------------|
 |---------------------|-----------------------|
 |---------------------|-----------------------|
 |---------------------|-----------------------|
 |-0--0--0-0-0-0-0-0-0-|--0--0-0-0-0-0-0---0-0-|
 |-0--0--0-0-0-0-0-0-0-|--0--0-0-0-0-0-0---0-0-|

 


 |


 | Gtr III


 | W +W


 

 
 |---------------------|-----------------------|
 |---------------------|-----------------------|
 |---------------------|-----------------------|
 |-3-------------------|-(3)-------------------|
 |-1-------------------|-(1)-------------------|
 |---------------------|-----------------------|

 


 |


 | Gtr IV


 | W +W


 

 
 |---------------------|-----------------------|
 |---------------------|-----------------------|
 |-3-------------------|-(3)-------------------|
 |---------------------|-----------------------|
 |-1-------------------|-(1)-------------------|
 |---------------------|-----------------------|
 -------------------------------------------|

 


 E. E. E E E S S S S S E S E E E E E S S


 

 
 |---------------------|-----------------------|
 |---------------------|-----------------------|
 |---------------------|-----------------------|
 |---------------------|-----------------------|
 |-0--0--0-0-0-0-0-0-0-|--0--0-0-0-0-0-0---0-0-|
 |-0--0--0-0-0-0-0-0-0-|--0--0-0-0-0-0-0---0-0-|

 


 |


 | W +W


 

 
 |---------------------|-----------------------|
 |---------------------|-----------------------|
 |---------------------|-----------------------|
 |-7-------------------|-(7)-------------------|
 |-5-------------------|-(5)-------------------|
 |---------------------|-----------------------|

 


 |


 | W +W


 

 
 |---------------------|-----------------------|
 |---------------------|-----------------------|
 |-7-------------------|-(7)-------------------|
 |---------------------|-----------------------|
 |-5-------------------|-(5)-------------------|
 |---------------------|-----------------------|

 


 


 Gtrs I, II


 

 
 PM-------------------------------------------

 


 E. E. E E E S S S S S E S E E E E E S S


 

 
 |---------------------|-----------------------|
 |---------------------|-----------------------|
 |---------------------|-----------------------|
 |---------------------|-----------------------|
 |-0--0--0-0-0-0-0-0-0-|--0--0-0-0-0-0-0---0-0-|
 |-0--0--0-0-0-0-0-0-0-|--0--0-0-0-0-0-0---0-0-|

 


 |


 | Gtr III


 | W +W


 

 
 |---------------------|-----------------------|
 |---------------------|-----------------------|
 |---------------------|-----------------------|
 |-7-------------------|-(7)-------------------|
 |-5-------------------|-(5)-------------------|
 |---------------------|-----------------------|

 


 |


 | Gtr IV


 | W +W


 

 
 |---------------------|-----------------------|
 |---------------------|-----------------------|
 |-7-------------------|-(7)-------------------|
 |---------------------|-----------------------|
 |-5-------------------|-(5)-------------------|
 |---------------------|-----------------------|
 -------------------------------------------|

 


 E. E. E E E S S S S S E S E E E E E S S


 

 
 |---------------------|-----------------------|
 |---------------------|-----------------------|
 |---------------------|-----------------------|
 |---------------------|-----------------------|
 |-0--0--0-0-0-0-0-0-0-|--0--0-0-0-0-0-0---0-0-|
 |-0--0--0-0-0-0-0-0-0-|--0--0-0-0-0-0-0---0-0-|

 


 |


 | W +W


 

 
 |---------------------|-----------------------|
 |---------------------|-----------------------|
 |---------------------|-----------------------|
 |-4-------------------|-(4)-------------------|
 |-2-------------------|-(2)-------------------|
 |---------------------|-----------------------|

 


 |


 | W +W


 

 
 |---------------------|-----------------------|
 |---------------------|-----------------------|
 |-4-------------------|-(4)-------------------|
 |---------------------|-----------------------|
 |-2-------------------|-(2)-------------------|
 |---------------------|-----------------------|

 


 


 Gtrs I, II


 

 
 PM-------------------------------------------

 


 E. E. E E E S S S S S E S E E E E E S S


 

 
 |---------------------|-----------------------|
 |---------------------|-----------------------|
 |---------------------|-----------------------|
 |---------------------|-----------------------|
 |-0--0--0-0-0-0-0-0-0-|--0--0-0-0-0-0-0---0-0-|
 |-0--0--0-0-0-0-0-0-0-|--0--0-0-0-0-0-0---0-0-|

 


 |


 | Gtrs III, IV


 | W +W


 

 
 |---------------------|-----------------------|
 |---------------------|-----------------------|
 |---------------------|-----------------------|
 |-3-------------------|-(3)-------------------|
 |-1-------------------|-(1)-------------------|
 |---------------------|-----------------------|
 -------------------------------------------|

 


 E. E. E E E S S S S S E S E E E E E S S


 

 
 |---------------------|-----------------------|
 |---------------------|-----------------------|
 |---------------------|-----------------------|
 |---------------------|-----------------------|
 |-0--0--0-0-0-0-0-0-0-|--0--0-0-0-0-0-0---0-0-|
 |-0--0--0-0-0-0-0-0-0-|--0--0-0-0-0-0-0---0-0-|

 


 |


 | W +W


 

 
 |---------------------|-----------------------|
 |---------------------|-----------------------|
 |---------------------|-----------------------|
 |-0-------------------|-(0)-------------------|
 |-0-------------------|-(0)-------------------|
 |-0-------------------|-(0)-------------------|

 


 


 Gtrs I, II


 

 
 PM-----------------------------------------

 


 E. E. E E E S S S S S E S E E E E E S S


 

 
 |---------------------|---------------------|
 |---------------------|---------------------|
 |---------------------|---------------------|
 |---------------------|---------------------|
 |-4--4--4-4-4-4-4-4-4-|-4-4-4-4-4-4-4---4-4-|
 |-6--6--6-6-6-6-6-6-6-|-6-6-6-6-6-6-6---6-6-|
 -----------------------------------------|

 


 E. E. E E E S S S S S E S E E E E E S S


 

 
 |---------------------|---------------------|
 |---------------------|---------------------|
 |---------------------|---------------------|
 |---------------------|---------------------|
 |-4--4--4-4-4-4-4-4-4-|-4-4-4-4-4-4-4---4-4-|
 |-6--6--6-6-6-6-6-6-6-|-6-6-6-6-6-6-6---6-6-|

 


 


 Gtrs I, II


 

 
 PM-----------------------------------------

 


 E. E. E E E S S S S S E S E E E E E S S


 

 
 |---------------------|---------------------|
 |---------------------|---------------------|
 |---------------------|---------------------|
 |---------------------|---------------------|
 |-4--4--4-4-4-4-4-4-4-|-4-4-4-4-4-4-4---4-4-|
 |-6--6--6-6-6-6-6-6-6-|-6-6-6-6-6-6-6---6-6-|
 ---------------------------------------------|
 |-3-| |-3-| |-3-| |-3-|

 


 E. E. E E E S S S S E E E E E E E E E E E E


 

 
 |---------------------|--------------------------|
 |---------------------|--------------------------|
 |---------------------|--------------------------|
 |---------------------|--------------------------|
 |-4--4--4-4-4-4-4-4-4-|-4-4-4-4-4-4-4-4-4-4-4-4--|
 |-6--6--6-6-6-6-6-6-6-|-6-6-6-6-6-6-6-6-6-6-6-6--|

 


 


 Gtrs I, II


 H H W H H H H


 

 
 |------------|-----------|------------|------------|
 |------------|-----------|------------|------------|
 |------------|-----------|------------|------------|
 |--0----2----|--3--------|--0----5----|--3----5----|
 |--0----3----|--3--------|--0----3----|--3----5----|
 |--0----2----|--3--------|--0----5----|--3----5----|

 


 |


 | Gtr III


 | H H W H H H H


 

 
 |------------|-----------|------------|------------|
 |------------|-----------|------------|------------|
 |--7----5----|-----------|--7----5----|------------|
 |------------|--7--------|------------|--7----5----|
 |------------|-----------|------------|------------|
 |------------|-----------|------------|------------|

 


 |


 | Gtr IV


 | H H W H H H H


 

 
 |------------|-----------|------------|------------|
 |------------|-----------|------------|------------|
 |-10----9----|-----------|-10----9----|------------|
 |------------|-10--------|------------|-10----9----|
 |------------|-----------|------------|------------|
 |------------|-----------|------------|------------|

 


 


 Gtrs I, II


 PM|


 H H H H H. E E


 

 
 |------------|------------|-------------|
 |------------|------------|-------------|
 |------------|------------|-------------|
 |--0----5----|--3----5----|-3-------3-3-|
 |--0----3----|--3----5----|-1-------1-1-|
 |--0----5----|--3----5----|-3-------3-3-|

 


 |


 | Gtr III


 | H H H H W


 

 
 |------------|------------|-------------|
 |------------|------------|-------------|
 |--7----5----|------------|-------------|
 |------------|--7----5----|-3-----------|
 |------------|------------|-------------|
 |------------|------------|-------------|

 


 |


 | Gtr IV


 | H H H H W


 

 
 |------------|------------|-------------|
 |------------|------------|-------------|
 |-10----9----|------------|-------------|
 |------------|-10----9----|-8-----------|
 |------------|------------|-------------|
 |------------|------------|-------------|

 


 


 Gtrs I, II


 H H W H H H H


 

 
 |------------|-----------|------------|------------|
 |------------|-----------|------------|------------|
 |------------|-----------|------------|------------|
 |--0----2----|--3--------|--0----5----|--3----5----|
 |--0----3----|--3--------|--0----3----|--3----5----|
 |--0----2----|--3--------|--0----5----|--3----5----|

 


 |


 | Gtr III


 | H H W H H H H


 

 
 |------------|-----------|------------|------------|
 |------------|-----------|------------|------------|
 |--7----5----|-----------|--7----5----|------------|
 |------------|--7--------|------------|--7----5----|
 |------------|-----------|------------|------------|
 |------------|-----------|------------|------------|

 


 |


 | Gtr IV


 | H H W H H H H


 

 
 |------------|-----------|------------|------------|
 |------------|-----------|------------|------------|
 |-10----9----|-----------|-10----9----|------------|
 |------------|-10--------|------------|-10----9----|
 |------------|-----------|------------|------------|
 |------------|-----------|------------|------------|

 


 


 Gtrs I, II


 H H H H W +W


 

 
 |------------|------------|----------|--------|
 |------------|------------|----------|--------|
 |------------|------------|----------|--------|
 |--0----5----|--3----5----|-3--------|-(3)----|
 |--0----3----|--3----5----|-1--------|-(1)----|
 |--0----5----|--3----5----|-3--------|-(3)----|

 


 |


 | Gtr III


 | H H H H W +W


 

 
 |------------|------------|----------|--------|
 |------------|------------|----------|--------|
 |--7----5----|------------|----------|--------|
 |------------|--7----5----|-3--------|-(3)----|
 |------------|------------|----------|--------|
 |------------|------------|----------|--------|

 


 |


 | Gtr IV


 | H H H H W +W


 

 
 |------------|------------|----------|--------|
 |------------|------------|----------|--------|
 |-10----9----|------------|----------|--------|
 |------------|-10----9----|-8--------|-(8)----|
 |------------|------------|----------|--------|
 |------------|------------|----------|--------|

 


 


 Gtrs I, II


 

 
 PM| PM----------------------------------------------|

 


 E E H. H.. S S E. E. E E E S S S S S E S E E E E E S S


 

 
 |-------------|---------------|---------------------|-----------------------|
 |-------------|---------------|---------------------|-----------------------|
 |-------------|---------------|---------------------|-----------------------|
 |-------------|---------------|---------------------|-----------------------|
 |-0-0---------|-----------0-0-|-0--0--0-0-0-0-0-0-0-|--0--0-0-0-0-0-0---0-0-|
 |-0-0---------|-----------0-0-|-0--0--0-0-0-0-0-0-0-|--0--0-0-0-0-0-0---0-0-|

 


 |


 | Gtr III


 | E E H. W W +W


 

 
 |-------------|---------------|---------------------|-----------------------|
 |-------------|---------------|---------------------|-----------------------|
 |-------------|---------------|---------------------|-----------------------|
 |-7-7---------|---------------|-4-------------------|-(4)-------------------|
 |-5-5---------|---------------|-2-------------------|-(2)-------------------|
 |-------------|---------------|---------------------|-----------------------|

 


 |


 | Gtr IV


 | E E H. W W +W


 

 
 |-------------|---------------|---------------------|-----------------------|
 |-------------|---------------|---------------------|-----------------------|
 |-------------|---------------|-4-------------------|-(4)-------------------|
 |-7-7---------|---------------|---------------------|-----------------------|
 |-5-5---------|---------------|-2-------------------|-(2)-------------------|
 |-------------|---------------|---------------------|-----------------------|

 


 


 Gtrs I, II


 

 
 PM-------------------------------------------

 


 E. E. E E E S S S S S E S E E E E E S S


 

 
 |---------------------|-----------------------|
 |---------------------|-----------------------|
 |---------------------|-----------------------|
 |---------------------|-----------------------|
 |-0--0--0-0-0-0-0-0-0-|--0--0-0-0-0-0-0---0-0-|
 |-0--0--0-0-0-0-0-0-0-|--0--0-0-0-0-0-0---0-0-|

 


 |


 | Gtr III


 | W +W


 

 
 |---------------------|-----------------------|
 |---------------------|-----------------------|
 |---------------------|-----------------------|
 |-3-------------------|-(3)-------------------|
 |-1-------------------|-(1)-------------------|
 |---------------------|-----------------------|

 


 |


 | Gtr IV


 | W +W


 

 
 |---------------------|-----------------------|
 |---------------------|-----------------------|
 |-3-------------------|-(3)-------------------|
 |---------------------|-----------------------|
 |-1-------------------|-(1)-------------------|
 |---------------------|-----------------------|
 -------------------------------------------|

 


 E. E. E E E S S S S S E S E E E E E S S


 

 
 |---------------------|-----------------------|
 |---------------------|-----------------------|
 |---------------------|-----------------------|
 |---------------------|-----------------------|
 |-0--0--0-0-0-0-0-0-0-|--0--0-0-0-0-0-0---0-0-|
 |-0--0--0-0-0-0-0-0-0-|--0--0-0-0-0-0-0---0-0-|

 


 |


 | W +W


 

 
 |---------------------|-----------------------|
 |---------------------|-----------------------|
 |---------------------|-----------------------|
 |-7-------------------|-(7)-------------------|
 |-5-------------------|-(5)-------------------|
 |---------------------|-----------------------|

 


 |


 | W +W


 

 
 |---------------------|-----------------------|
 |---------------------|-----------------------|
 |-7-------------------|-(7)-------------------|
 |---------------------|-----------------------|
 |-5-------------------|-(5)-------------------|
 |---------------------|-----------------------|

 


 


 Gtrs I, II


 

 
 PM-------------------------------------------

 


 E. E. E E E S S S S S E S E E E E E S S


 

 
 |---------------------|-----------------------|
 |---------------------|-----------------------|
 |---------------------|-----------------------|
 |---------------------|-----------------------|
 |-0--0--0-0-0-0-0-0-0-|--0--0-0-0-0-0-0---0-0-|
 |-0--0--0-0-0-0-0-0-0-|--0--0-0-0-0-0-0---0-0-|

 


 |


 | Gtr III


 | W +W


 

 
 |---------------------|-----------------------|
 |---------------------|-----------------------|
 |---------------------|-----------------------|
 |-7-------------------|-(7)-------------------|
 |-5-------------------|-(5)-------------------|
 |---------------------|-----------------------|

 


 |


 | Gtr IV


 | W +W


 

 
 |---------------------|-----------------------|
 |---------------------|-----------------------|
 |-7-------------------|-(7)-------------------|
 |---------------------|-----------------------|
 |-5-------------------|-(5)-------------------|
 |---------------------|-----------------------|
 -------------------------------------------|

 


 E. E. E E E S S S S S E S E E E E E S S


 

 
 |---------------------|-----------------------|
 |---------------------|-----------------------|
 |---------------------|-----------------------|
 |---------------------|-----------------------|
 |-0--0--0-0-0-0-0-0-0-|--0--0-0-0-0-0-0---0-0-|
 |-0--0--0-0-0-0-0-0-0-|--0--0-0-0-0-0-0---0-0-|

 


 |


 | W +W


 

 
 |---------------------|-----------------------|
 |---------------------|-----------------------|
 |---------------------|-----------------------|
 |-4-------------------|-(4)-------------------|
 |-2-------------------|-(2)-------------------|
 |---------------------|-----------------------|

 


 |


 | W +W


 

 
 |---------------------|-----------------------|
 |---------------------|-----------------------|
 |-4-------------------|-(4)-------------------|
 |---------------------|-----------------------|
 |-2-------------------|-(2)-------------------|
 |---------------------|-----------------------|

 


 


 Gtrs I, II


 

 
 PM-------------------------------------------

 


 E. E. E E E S S S S S E S E E E E E S S


 

 
 |---------------------|-----------------------|
 |---------------------|-----------------------|
 |---------------------|-----------------------|
 |---------------------|-----------------------|
 |-0--0--0-0-0-0-0-0-0-|--0--0-0-0-0-0-0---0-0-|
 |-0--0--0-0-0-0-0-0-0-|--0--0-0-0-0-0-0---0-0-|

 


 |


 | Gtrs III, IV


 | W +W


 

 
 |---------------------|-----------------------|
 |---------------------|-----------------------|
 |---------------------|-----------------------|
 |-3-------------------|-(3)-------------------|
 |-1-------------------|-(1)-------------------|
 |---------------------|-----------------------|
 -------------------------------------------|

 


 E. E. E E E S S S S S E S E E E E E S S


 

 
 |---------------------|-----------------------|
 |---------------------|-----------------------|
 |---------------------|-----------------------|
 |---------------------|-----------------------|
 |-0--0--0-0-0-0-0-0-0-|--0--0-0-0-0-0-0---0-0-|
 |-0--0--0-0-0-0-0-0-0-|--0--0-0-0-0-0-0---0-0-|

 


 |


 | W +W


 

 
 |---------------------|-----------------------|
 |---------------------|-----------------------|
 |---------------------|-----------------------|
 |-0-------------------|-(0)-------------------|
 |-0-------------------|-(0)-------------------|
 |-0-------------------|-(0)-------------------|

 


 


 Gtrs I, II


 

 
 PM-----------------------------------------

 


 E. E. E E E S S S S S E S E E E E E S S


 

 
 |---------------------|---------------------|
 |---------------------|---------------------|
 |---------------------|---------------------|
 |---------------------|---------------------|
 |-4--4--4-4-4-4-4-4-4-|-4-4-4-4-4-4-4---4-4-|
 |-6--6--6-6-6-6-6-6-6-|-6-6-6-6-6-6-6---6-6-|
 -----------------------------------------|

 


 E. E. E E E S S S S S E S E E E E E S S


 

 
 |---------------------|---------------------|
 |---------------------|---------------------|
 |---------------------|---------------------|
 |---------------------|---------------------|
 |-4--4--4-4-4-4-4-4-4-|-4-4-4-4-4-4-4---4-4-|
 |-6--6--6-6-6-6-6-6-6-|-6-6-6-6-6-6-6---6-6-|

 


 


 Gtrs I, II


 

 
 PM-----------------------------------------

 


 E. E. E E E S S S S S E S E E E E E S S


 

 
 |---------------------|---------------------|
 |---------------------|---------------------|
 |---------------------|---------------------|
 |---------------------|---------------------|
 |-4--4--4-4-4-4-4-4-4-|-4-4-4-4-4-4-4---4-4-|
 |-6--6--6-6-6-6-6-6-6-|-6-6-6-6-6-6-6---6-6-|
 ---------------------------------------------|
 |-3-| |-3-| |-3-| |-3-|

 


 E. E. E E E S S S S E E E E E E E E E E E E


 

 
 |---------------------|--------------------------|
 |---------------------|--------------------------|
 |---------------------|--------------------------|
 |---------------------|--------------------------|
 |-4--4--4-4-4-4-4-4-4-|-4-4-4-4-4-4-4-4-4-4-4-4--|
 |-6--6--6-6-6-6-6-6-6-|-6-6-6-6-6-6-6-6-6-6-6-6--|

 


 


 Gtrs I, II


 H H W H H H H


 

 
 |------------|-----------|------------|------------|
 |------------|-----------|------------|------------|
 |------------|-----------|------------|------------|
 |--0----2----|--3--------|--0----5----|--3----5----|
 |--0----3----|--3--------|--0----3----|--3----5----|
 |--0----2----|--3--------|--0----5----|--3----5----|

 


 |


 | Gtr III


 | H H W H H H H


 

 
 |------------|-----------|------------|------------|
 |------------|-----------|------------|------------|
 |--7----5----|-----------|--7----5----|------------|
 |------------|--7--------|------------|--7----5----|
 |------------|-----------|------------|------------|
 |------------|-----------|------------|------------|

 


 |


 | Gtr IV


 | H H W H H H H


 

 
 |------------|-----------|------------|------------|
 |------------|-----------|------------|------------|
 |-10----9----|-----------|-10----9----|------------|
 |------------|-10--------|------------|-10----9----|
 |------------|-----------|------------|------------|
 |------------|-----------|------------|------------|

 


 


 Gtrs I, II


 PM|


 H H H H H. E E


 

 
 |------------|------------|-------------|
 |------------|------------|-------------|
 |------------|------------|-------------|
 |--0----5----|--3----5----|-3-------3-3-|
 |--0----3----|--3----5----|-1-------1-1-|
 |--0----5----|--3----5----|-3-------3-3-|

 


 |


 | Gtr III


 | H H H H W


 

 
 |------------|------------|-------------|
 |------------|------------|-------------|
 |--7----5----|------------|-------------|
 |------------|--7----5----|-3-----------|
 |------------|------------|-------------|
 |------------|------------|-------------|

 


 |


 | Gtr IV


 | H H H H W


 

 
 |------------|------------|-------------|
 |------------|------------|-------------|
 |-10----9----|------------|-------------|
 |------------|-10----9----|-8-----------|
 |------------|------------|-------------|
 |------------|------------|-------------|

 


 


 Gtrs I, II


 H H W H H H H


 

 
 |------------|-----------|------------|------------|
 |------------|-----------|------------|------------|
 |------------|-----------|------------|------------|
 |--0----2----|--3--------|--0----5----|--3----5----|
 |--0----3----|--3--------|--0----3----|--3----5----|
 |--0----2----|--3--------|--0----5----|--3----5----|

 


 |


 | Gtr III


 | H H W H H H H


 

 
 |------------|-----------|------------|------------|
 |------------|-----------|------------|------------|
 |--7----5----|-----------|--7----5----|------------|
 |------------|--7--------|------------|--7----5----|
 |------------|-----------|------------|------------|
 |------------|-----------|------------|------------|

 


 |


 | Gtr IV


 | H H W H H H H


 

 
 |------------|-----------|------------|------------|
 |------------|-----------|------------|------------|
 |-10----9----|-----------|-10----9----|------------|
 |------------|-10--------|------------|-10----9----|
 |------------|-----------|------------|------------|
 |------------|-----------|------------|------------|

 


 


 Gtrs I, II


 H H H H W +W


 

 
 |------------|------------|----------|--------|
 |------------|------------|----------|--------|
 |------------|------------|----------|--------|
 |--0----5----|--3----5----|-3--------|-(3)----|
 |--0----3----|--3----5----|-1--------|-(1)----|
 |--0----5----|--3----5----|-3--------|-(3)----|

 


 |


 | Gtr III


 | H H H H W +W


 

 
 |------------|------------|----------|--------|
 |------------|------------|----------|--------|
 |--7----5----|------------|----------|--------|
 |------------|--7----5----|-3--------|-(3)----|
 |------------|------------|----------|--------|
 |------------|------------|----------|--------|

 


 |


 | Gtr IV


 | H H H H W +W


 

 
 |------------|------------|----------|--------|
 |------------|------------|----------|--------|
 |-10----9----|------------|----------|--------|
 |------------|-10----9----|-8--------|-(8)----|
 |------------|------------|----------|--------|
 |------------|------------|----------|--------|

 


 


 Gtrs I, II


 

 
 PM-----------------------------------------

 


 E. E. E E E S S S S S E S E E E E E S S


 

 
 ||----------------------|---------------------|
 ||o---------------------|---------------------|
 ||----------------------|---------------------|
 ||----------------------|---------------------|
 ||o-0--0--0-0-0-0-0-0-0-|-0-0-0-0-0-0-0---0-0-|
 ||--0--0--0-0-0-0-0-0-0-|-0-0-0-0-0-0-0---0-0-|
 -----------------------------------------|

 


 E. E. E E E S S S S S E S E E E E E S S


 

 
 |---------------------|------------------------||
 |---------------------|-----------------------o||
 |---------------------|------------------------||
 |---------------------|------------------------||
 |-0--0--0-0-0-0-0-0-0-|-0-0-0-0-0-0-0---0-0---o||
 |-0--0--0-0-0-0-0-0-0-|-0-0-0-0-0-0-0---0-0----||

 


 


 Gtrs I, II


 

 
 PM-----------------------------------------

 


 E. E. E E E S S S S S E S E E E E E S S


 

 
 |---------------------|---------------------|
 |---------------------|---------------------|
 |---------------------|---------------------|
 |---------------------|---------------------|
 |-4--4--4-4-4-4-4-4-4-|-4-4-4-4-4-4-4---4-4-|
 |-6--6--6-6-6-6-6-6-6-|-6-6-6-6-6-6-6---6-6-|
 -----------------------------------------|

 


 E. E. E E E S S S S S E S E E E E E S S


 

 
 |---------------------|---------------------|
 |---------------------|---------------------|
 |---------------------|---------------------|
 |---------------------|---------------------|
 |-4--4--4-4-4-4-4-4-4-|-4-4-4-4-4-4-4---4-4-|
 |-6--6--6-6-6-6-6-6-6-|-6-6-6-6-6-6-6---6-6-|

 


 


 Gtrs I, II


 

 
 PM-----------------------------------------

 


 E. E. E E E S S S S S E S E E E E E S S


 

 
 |---------------------|---------------------|
 |---------------------|---------------------|
 |---------------------|---------------------|
 |---------------------|---------------------|
 |-4--4--4-4-4-4-4-4-4-|-4-4-4-4-4-4-4---4-4-|
 |-6--6--6-6-6-6-6-6-6-|-6-6-6-6-6-6-6---6-6-|
 ---------------------------------------------|
 |-3-| |-3-| |-3-| |-3-|

 


 E. E. E E E S S S S E E E E E E E E E E E E


 

 
 |---------------------|--------------------------|
 |---------------------|--------------------------|
 |---------------------|--------------------------|
 |---------------------|--------------------------|
 |-4--4--4-4-4-4-4-4-4-|-4-4-4-4-4-4-4-4-4-4-4-4--|
 |-6--6--6-6-6-6-6-6-6-|-6-6-6-6-6-6-6-6-6-6-6-6--|

 


 


 Gtrs I, II


 H H W H H H H


 

 
 |------------|-----------|------------|------------|
 |------------|-----------|------------|------------|
 |------------|-----------|------------|------------|
 |--0----2----|--3--------|--0----5----|--3----5----|
 |--0----3----|--3--------|--0----3----|--3----5----|
 |--0----2----|--3--------|--0----5----|--3----5----|

 


 |


 | Gtr III


 | H H W H H H H


 

 
 |------------|-----------|------------|------------|
 |------------|-----------|------------|------------|
 |--7----5----|-----------|--7----5----|------------|
 |------------|--7--------|------------|--7----5----|
 |------------|-----------|------------|------------|
 |------------|-----------|------------|------------|

 


 |


 | Gtr IV


 | H H W H H H H


 

 
 |------------|-----------|------------|------------|
 |------------|-----------|------------|------------|
 |-10----9----|-----------|-10----9----|------------|
 |------------|-10--------|------------|-10----9----|
 |------------|-----------|------------|------------|
 |------------|-----------|------------|------------|

 


 


 Gtrs I, II


 PM|


 H H H H H. E E


 

 
 |------------|------------|-------------|
 |------------|------------|-------------|
 |------------|------------|-------------|
 |--0----5----|--3----5----|-3-------3-3-|
 |--0----3----|--3----5----|-1-------1-1-|
 |--0----5----|--3----5----|-3-------3-3-|

 


 |


 | Gtr III


 | H H H H W


 

 
 |------------|------------|-------------|
 |------------|------------|-------------|
 |--7----5----|------------|-------------|
 |------------|--7----5----|-3-----------|
 |------------|------------|-------------|
 |------------|------------|-------------|

 


 |


 | Gtr IV


 | H H H H W


 

 
 |------------|------------|-------------|
 |------------|------------|-------------|
 |-10----9----|------------|-------------|
 |------------|-10----9----|-8-----------|
 |------------|------------|-------------|
 |------------|------------|-------------|

 


 


 Gtrs I, II


 H H W H H H H


 

 
 |------------|-----------|------------|------------|
 |------------|-----------|------------|------------|
 |------------|-----------|------------|------------|
 |--0----2----|--3--------|--0----5----|--3----5----|
 |--0----3----|--3--------|--0----3----|--3----5----|
 |--0----2----|--3--------|--0----5----|--3----5----|

 


 |


 | Gtr III


 | H H W H H H H


 

 
 |------------|-----------|------------|------------|
 |------------|-----------|------------|------------|
 |--7----5----|-----------|--7----5----|------------|
 |------------|--7--------|------------|--7----5----|
 |------------|-----------|------------|------------|
 |------------|-----------|------------|------------|

 


 |


 | Gtr IV


 | H H W H H H H


 

 
 |------------|-----------|------------|------------|
 |------------|-----------|------------|------------|
 |-10----9----|-----------|-10----9----|------------|
 |------------|-10--------|------------|-10----9----|
 |------------|-----------|------------|------------|
 |------------|-----------|------------|------------|

 


 


 Gtrs I, II


 H H H H W +W


 

 
 |------------|------------|----------|--------|
 |------------|------------|----------|--------|
 |------------|------------|----------|--------|
 |--0----5----|--3----5----|-3--------|-(3)----|
 |--0----3----|--3----5----|-1--------|-(1)----|
 |--0----5----|--3----5----|-3--------|-(3)----|

 


 |


 | Gtr III


 | H H H H W +W


 

 
 |------------|------------|----------|--------|
 |------------|------------|----------|--------|
 |--7----5----|------------|----------|--------|
 |------------|--7----5----|-3--------|-(3)----|
 |------------|------------|----------|--------|
 |------------|------------|----------|--------|

 


 |


 | Gtr IV


 | H H H H W +W


 

 
 |------------|------------|----------|--------|
 |------------|------------|----------|--------|
 |-10----9----|------------|----------|--------|
 |------------|-10----9----|-8--------|-(8)----|
 |------------|------------|----------|--------|
 |------------|------------|----------|--------|

 


 


 Gtrs I, II


 

 
 PM------------------------------| ~~~~~ PM---

 


 E. E. E E E S S S S S E S E E E Q S S


 

 
 |---------------------|------------------------|
 |---------------------|------------------------|
 |---------------------|------------------------|
 |---------------------|------------------------|
 |-0--0--0-0-0-0-0-0-0-|-0-0-0-0-0-0-[5]b6--0-0-|
 |-0--0--0-0-0-0-0-0-0-|-0-0-0-0-0-0--------0-0-|
 ---------------------------------| ~~~~~ PM|

 


 E. E. E E E S S S S S E S E E E Q S S


 

 
 |---------------------|------------------------|
 |---------------------|------------------------|
 |---------------------|------------------------|
 |---------------------|------------------------|
 |-0--0--0-0-0-0-0-0-0-|-0-0-0-0-0-0-[5]b6--0-0-|
 |-0--0--0-0-0-0-0-0-0-|-0-0-0-0-0-0--------0-0-|

 


 


 Gtrs I, II


 

 
 PM------------------------------| ~~~~~ PM---

 


 E. E. E E E S S S S S E S E E E Q S S


 

 
 |---------------------|------------------------|
 |---------------------|------------------------|
 |---------------------|------------------------|
 |---------------------|------------------------|
 |-0--0--0-0-0-0-0-0-0-|-0-0-0-0-0-0-[5]b6--0-0-|
 |-0--0--0-0-0-0-0-0-0-|-0-0-0-0-0-0--------0-0-|
 ---------------------------------------|
 |-3-| |-3-| |-3-| |-3-|

 


 E. E. E E E S S S S E E E E E E E E E E E E


 

 
 |---------------------|--------------------------*|
 |---------------------|--------------------------*|
 |---------------------|--------------------------*|
 |---------------------|--------------------------*|
 |-0--0--0-0-0-0-0-0-0-|-0-0-0-0-0-0-0-0-0-0------*|
 |-0--0--0-0-0-0-0-0-0-|-0-0-0-0-0-0-0-0-0-0------*|

 


 


 


 Duration Legend


 

 
 ---------------
 W - whole; H - half; Q - quarter; E - 8th; S - 16th; T - 32nd; X - 64th; a - acciaccatura

 


 + - note tied to previous; . - note dotted; .. - note double dotted


 Uncapitalized letters represent notes that are staccato (1/2 duration)


 Irregular groupings are notated above the duration line


 Duration letters will always appear directly above the note/fret number it represents the


 duration for. Duration letters with no fret number below them represent rests. Multi-


 bar rests are notated in the form Wxn, where n is the number of bars to rest for. Low


 melody durations appear below the staff


 


 Tablature Legend


 

 
 ----------------

 


 h - hammer-on


 p - pull-off


 b - bend


 pb - pre-bend


 r - bend release (if no number after the r, then release immediately)


 /\ - slide into or out of (from/to "nowhere")


 s - legato slide


 S - shift slide


 - natural harmonic


 (n) - artificial harmonic


 n(n) - tapped harmonic


 ~ - vibrato


 tr - trill


 T - tap


 TP - trem. picking


 PM - palm muting


 \n/ - tremolo bar dip; n = amount to dip


 \n - tremolo bar down


 n/ - tremolo bar up


 /n\ - tremolo bar inverted dip


 = - hold bend; also acts as connecting device for hammers/pulls


 - volume swell (louder/softer)


 x - on rhythm slash represents muted slash


 o - on rhythm slash represents single note slash


 


 Misc Legend


 

 
 -----------


Important: The song above is NOT stored on the Chordie server. The original song is hosted at www.guitaretab.com. Chordie works as a search engine and provides on-the-fly formatting. Chordie does not index songs against artists'/composers' will. To remove this song please click here.

This song is displayed as text-only. Transposing and tuning is only available for chordpro-songs.
Rate #1 of 2 versions

Jango Player

Login - add to songbook

SHARE PAGE  




You need to log in to post comments