Guitar Tabs, Chords and Lyrics
Server problems seems to be fixed. Chordie has been experiencing problems with songs disappearing. These issues now seems to be fixed, but still verifying the fix. If you find anything strange, please email admin@chordie.com.


Poltetun maan taktiikkaa   Mokoma

 
 |----------|
 |----------|
 |----------|
 |-0--------|
 |-0--------|
 |-0--------|

 


 


 Gtrs I, II


 PM| PM| PM| PM PM PM PM| PM| PM|


 E E E E E E E E E E E E E E Q E E E E E E E E E E E E E E Q


 

 
 ||------------------|----------------|-----------------|------------------||
 ||o-----------------|----------------|-----------------|-----------------o||
 ||------------------|----------------|-----------------|------------------||
 ||------------------|----------------|-----------------|------------------||
 ||o-----5-----6-----|-5-------3------|-----5-----6-----|-6-8-6-5-6-5-----o||
 ||--0-0---0-0---0-0-|---0-6-0---0-6--|-0-0---0-0---0-0-|-------------6----||

 


 


 Gtrs I, II


 PM| PM| PM| PM PM PM PM| PM| PM|


 E E E E E E E E E E E E E E Q E E E E E E E E E E E E E E Q


 

 
 |-----------------|----------------|-----------------|----------------|
 |-----------------|----------------|-----------------|----------------|
 |-----------------|----------------|-----------------|----------------|
 |-----------------|-----3----------|-----------------|----------------|
 |-----6-----5-----|-6-------6---5--|-----6-----5-----|-5-6-5-3-5-3----|
 |-3-3---3-3---3-3-|---3---3---3----|-3-3---3-3---3-3-|-------------6--|

 


 


 Gtrs I, II


 PM| PM| PM| PM PM PM PM| PM| PM|


 E E E E E E E E E E E E E E Q E E E E E E E E E E H.


 

 
 |-----------------|----------------|-----------------|-----------|
 |-----------------|----------------|-----------------|-----------|
 |-----------------|----------------|-----------------|-----------|
 |-----------------|----------------|-----------------|-7-7-------|
 |-----5-----6-----|-5-------3------|-----5-----6-----|-5-5-------|
 |-0-0---0-0---0-0-|---0-6-0---0-6--|-0-0---0-0---0-0-|-----------|

 


 


 Gtrs I, II


 PM| PM| PM| PM PM PM PM| PM| PM|


 E E E E E E E E E E E E E E Q E E E E E E E E E E E E E E Q


 

 
 ||------------------|----------------|-----------------|------------------||
 ||o-----------------|----------------|-----------------|-----------------o||
 ||------------------|----------------|-----------------|------------------||
 ||------------------|----------------|-----------------|------------------||
 ||o-----5-----6-----|-5-------3------|-----5-----6-----|-6-8-6-5-6-5-----o||
 ||--0-0---0-0---0-0-|---0-6-0---0-6--|-0-0---0-0---0-0-|-------------6----||

 


 


 Gtrs I, II


 PM| PM| PM| PM PM PM PM| PM| PM|


 E E E E E E E E E E E E E E Q E E E E E E E E E E E E E E Q


 

 
 |-----------------|----------------|-----------------|----------------|
 |-----------------|----------------|-----------------|----------------|
 |-----------------|----------------|-----------------|----------------|
 |-----------------|-----3----------|-----------------|----------------|
 |-----6-----5-----|-6-------6---5--|-----6-----5-----|-5-6-5-3-5-3----|
 |-3-3---3-3---3-3-|---3---3---3----|-3-3---3-3---3-3-|-------------6--|

 


 


 Gtr I


 PM| PM| PM| PM PM PM PM| PM| PM|


 E E E E E E E E E E E E E E Q E E E E E E E E E H..


 

 
 |-----------------|----------------|-----------------|-----------|
 |-----------------|----------------|-----------------|-----------|
 |-----------------|----------------|-----------------|-----------|
 |-----------------|----------------|-----5-----6-----|-5-[5]-----|
 |-----5-----6-----|-5-------3------|-----------------|-----------|
 |-0-0---0-0---0-0-|---0-6-0---0-6--|-0-0---0-0---0-0-|-----------|

 


 |


 | Gtr II


 | PM| PM| PM| PM PM PM PM| PM| PM|


 | E E E E E E E E E E E E E E Q E E E E E E E E E H..


 

 
 |-----------------|----------------|-----------------|-----------|
 |-----------------|----------------|-----------------|-----------|
 |-----------------|----------------|-----------------|-----------|
 |-----------------|----------------|-----------------|-----------|
 |-----5-----6-----|-5-------3------|-----5-----6-----|-5-[5]-----|
 |-0-0---0-0---0-0-|---0-6-0---0-6--|-0-0---0-0---0-0-|-----------|

 


 


 Gtrs I, II


 PM| PM| PM| PM| PM| PM| PM|


 E E E E E E E E E E E E E E E E E E E E E E E E E E E E E E Q 3x


 

 
 ||------------------|-----------------|-----------------|------------------||
 ||o-----------------|-----------------|-----------------|-----------------o||
 ||------------------|-----------------|-----------------|------------------||
 ||------------------|-----------------|-----------------|------------------||
 ||o-----3s5-----3s5-|-----3s5-----3s5-|-----6s5-6s5-----|-6s5-6s5-----3---o||
 ||--0-0-3s5-0-0-3s5-|-0-0-3s5-0-0-3s5-|-0-0-6s5-6s5-0-0-|-6s5-6s5-0-0-3----||

 


 


 Gtrs I, II


 PM| PM| PM| PM|


 E E E E E E E E E E E E E E E E Q. Q. Q +W


 

 
 |-----------------|-----------------|--------------|--------|
 |-----------------|-----------------|--------------|--------|
 |-----------------|-----------------|--------------|--------|
 |-----------------|-----------------|--------------|--------|
 |-----3s5-----3s5-|-----3s5-----3s5-|-6----3----5--|-(5)----|
 |-0-0-3s5-0-0-3s5-|-0-0-3s5-0-0-3s5-|-6----3----5--|-(5)----|

 


 


 [4/4] Gtrs I, II


 Q H.


 

 
 |----------|
 |----------|
 |----------|
 |-0--------|
 |-0--------|
 |-0--------|

 


 


 Gtrs I, II


 PM| PM| PM| PM PM PM PM| PM| PM|


 E E E E E E E E E E E E E E Q E E E E E E E E E E E E E E Q


 

 
 ||------------------|----------------|-----------------|------------------||
 ||o-----------------|----------------|-----------------|-----------------o||
 ||------------------|----------------|-----------------|------------------||
 ||------------------|----------------|-----------------|------------------||
 ||o-----5-----6-----|-5-------3------|-----5-----6-----|-6-8-6-5-6-5-----o||
 ||--0-0---0-0---0-0-|---0-6-0---0-6--|-0-0---0-0---0-0-|-------------6----||

 


 


 Gtrs I, II


 PM| PM| PM| PM PM PM PM| PM| PM|


 E E E E E E E E E E E E E E Q E E E E E E E E E E E E E E Q


 

 
 |-----------------|----------------|-----------------|----------------|
 |-----------------|----------------|-----------------|----------------|
 |-----------------|----------------|-----------------|----------------|
 |-----------------|-----3----------|-----------------|----------------|
 |-----6-----5-----|-6-------6---5--|-----6-----5-----|-5-6-5-3-5-3----|
 |-3-3---3-3---3-3-|---3---3---3----|-3-3---3-3---3-3-|-------------6--|

 


 


 Gtr I


 PM| PM| PM| PM PM PM PM| PM| PM|


 E E E E E E E E E E E E E E Q E E E E E E E E E H..


 

 
 |-----------------|----------------|-----------------|-----------|
 |-----------------|----------------|-----------------|-----------|
 |-----------------|----------------|-----------------|-----------|
 |-----------------|----------------|-----5-----6-----|-5-[5]-----|
 |-----5-----6-----|-5-------3------|-----------------|-----------|
 |-0-0---0-0---0-0-|---0-6-0---0-6--|-0-0---0-0---0-0-|-----------|

 


 |


 | Gtr II


 | PM| PM| PM| PM PM PM PM| PM| PM|


 | E E E E E E E E E E E E E E Q E E E E E E E E E H..


 

 
 |-----------------|----------------|-----------------|-----------|
 |-----------------|----------------|-----------------|-----------|
 |-----------------|----------------|-----------------|-----------|
 |-----------------|----------------|-----------------|-----------|
 |-----5-----6-----|-5-------3------|-----5-----6-----|-5-[5]-----|
 |-0-0---0-0---0-0-|---0-6-0---0-6--|-0-0---0-0---0-0-|-----------|

 


 


 Gtrs I, II


 PM| PM| PM| PM| PM| PM| PM|


 E E E E E E E E E E E E E E E E E E E E E E E E E E E E E E Q 4x


 

 
 ||------------------|-----------------|-----------------|------------------||
 ||o-----------------|-----------------|-----------------|-----------------o||
 ||------------------|-----------------|-----------------|------------------||
 ||------------------|-----------------|-----------------|------------------||
 ||o-----3s5-----3s5-|-----3s5-----3s5-|-----6s5-6s5-----|-6s5-6s5-----3---o||
 ||--0-0-3s5-0-0-3s5-|-0-0-3s5-0-0-3s5-|-0-0-6s5-6s5-0-0-|-6s5-6s5-0-0-3----||

 


 


 Gtrs I, II


 PM| PM| PM| PM| PM| PM|


 E E E E E E E E E E E E E E Q E E E E E E E E E E E E E E Q


 

 
 |-----------------|----------------|-----------------|----------------|
 |-----------------|----------------|-----------------|----------------|
 |-----------------|----------------|-----------------|----------------|
 |-----------------|----------------|-----------------|----------------|
 |-----6s5-6s5-----|-6s5-6s5-----3--|-----6s5-6s5-----|-6s5-6s5-----3--|
 |-0-0-6s5-6s5-0-0-|-6s5-6s5-0-0-3--|-0-0-6s5-6s5-0-0-|-6s5-6s5-0-0-3--|

 


 


 Q=120


 Gtrs I, II


 

 
 PM| PM| PM| PM| PM--------------|

 


 |-3-| |-3-|


 E E E E E E E E E E E E E E Q E E E E E E E E Q Q Q Q Q Q


 

 
 |-----------------|----------------|-----------------|-------------|
 |-----------------|----------------|-----------------|-------------|
 |-----------------|----------------|-----------------|-------------|
 |-----------------|----------------|-----------------|-------------|
 |-----6s5-6s5-----|-6s5-6s5-----3--|-----6s5-6s5-----|-6-5-3-5-3-1-|
 |-0-0-6s5-6s5-0-0-|-6s5-6s5-0-0-3--|-0-0-6s5-6s5-0-0-|-6-5-3-5-3-1-|

 


 


 Gtr I


 

 
 PM--------| PM--------| PM--------| PM--------|

 


 E E E E E E Q E E E E E E Q E E E E E E Q E E E E E E Q


 

 
 ||------------------|-----------------|-----------------|-------------------||
 ||o-----------------|-----------------|-----------------|------------------o||
 ||--------------/8--|-------------/8--|-------------/8--|-------------/8----||
 ||------------------|-----------------|-----------------|-------------------||
 ||o-0-0-0-0-0-0-/6--|-0-0-0-0-0-0-/6--|-0-0-0-0-0-0-/6--|-0-0-0-0-0-0-/6---o||
 ||--0-0-0-0-0-0-----|-0-0-0-0-0-0-----|-0-0-0-0-0-0-----|-0-0-0-0-0-0-------||

 


 |


 | Gtr II


 

 
 | PM--------| PM--------| PM--------| PM--------|

 


 | E E E E E E Q E E E E E E Q E E E E E E Q E E E E E E Q


 

 
 ||------------------|-----------------|-----------------|-------------------||
 ||o-----------------|-----------------|-----------------|------------------o||
 ||--------------/5--|-------------/5--|-------------/5--|-------------/5----||
 ||------------------|-----------------|-----------------|-------------------||
 ||o-0-0-0-0-0-0-/3--|-0-0-0-0-0-0-/3--|-0-0-0-0-0-0-/3--|-0-0-0-0-0-0-/3---o||
 ||--0-0-0-0-0-0-----|-0-0-0-0-0-0-----|-0-0-0-0-0-0-----|-0-0-0-0-0-0-------||

 


 


 Gtr I


 S S S S S S S S S S S S S S S S S S S S S S S S S S S S S S S S


 

 
 |---------------------------------|---------------------------------|
 |---------------------------------|---------------------------------|
 |-7-7-7-7-7-7-7-7-7-7-7-7s8-8-8-8s|=4-4-4-4-4-4-4-4-4-4-4-4-4-4-4-4s|
 |---------------------------------|---------------------------------|
 |-5-5-5-5-5-5-5-5-5-5-5-5s6-6-6-6s|=2-2-2-2-2-2-2-2-2-2-2-2-2-2-2-2s|
 |---------------------------------|---------------------------------|

 


 |


 | Gtr II


 | S S S S S S S S S S S S S S S S S S S S S S S S S S S S S S S S


 

 
 |---------------------------------|---------------------------------|
 |---------------------------------|---------------------------------|
 |-7-7-7-7-7-7-7-7-7-7-7-7-7-7-7-7-|-7-7-7-7-7-7-7-7-7-7-7-7-7-7-7-7-|
 |---------------------------------|---------------------------------|
 |-5-5-5-5-5-5-5-5-5-5-5-5-5-5-5-5-|-5-5-5-5-5-5-5-5-5-5-5-5-5-5-5-5-|
 |---------------------------------|---------------------------------|

 


 


 S S S S S S S S S S S S S S S S S S S S S S S S S S S S S S S S


 

 
 |---------------------------------|-----------------------------------------------------|
 |---------------------------------|-----------------------------------------------------|
 |-7-7-7-7-7-7-7-7-7-7-7-7s8-8-8-8s|=10-10-10-10-10-10-10-10-10-10-10-10s11-11-11-11s====|
 |---------------------------------|-----------------------------------------------------|
 |-5-5-5-5-5-5-5-5-5-5-5-5s6-6-6-6s|==8--8--8--8--8--8--8--8--8--8--8--8s=9--9--9--9s====|
 |---------------------------------|-----------------------------------------------------|

 


 |


 | S S S S S S S S S S S S S S S S S S S S S S S S S S S S S S S S


 

 
 |---------------------------------|-----------------------------------------------------|
 |---------------------------------|-----------------------------------------------------|
 |-7-7-7-7-7-7-7-7-7-7-7-7-7-7-7-7-|--7--7--7--7--7--7--7--7--7--7--7--7--7--7--7--7-----|
 |---------------------------------|-----------------------------------------------------|
 |-5-5-5-5-5-5-5-5-5-5-5-5-5-5-5-5-|--5--5--5--5--5--5--5--5--5--5--5--5--5--5--5--5-----|
 |---------------------------------|-----------------------------------------------------|

 


 


 Gtr I


 S S S S S S S S S S S S S S S S S S S S S S S S S S S S S S S S


 

 
 |---------------------------------|---------------------------------------------|
 |---------------------------------|---------------------------------------------|
 |-7-7-7-7-7-7-7-7-7-7-7-7s8-8-8-8s|=10-10-10-10-10-10-10-10-10-10-10-10s7-7-7-7s|
 |---------------------------------|---------------------------------------------|
 |-5-5-5-5-5-5-5-5-5-5-5-5s6-6-6-6s|==8--8--8--8--8--8--8--8--8--8--8--8s5-5-5-5s|
 |---------------------------------|---------------------------------------------|

 


 |


 | Gtr II


 | S S S S S S S S S S S S S S S S S S S S S S S S S S S S S S S S


 

 
 |---------------------------------|---------------------------------------------|
 |---------------------------------|---------------------------------------------|
 |-7-7-7-7-7-7-7-7-7-7-7-7-7-7-7-7-|--7--7--7--7--7--7--7--7--7--7--7--7-7-7-7-7-|
 |---------------------------------|---------------------------------------------|
 |-5-5-5-5-5-5-5-5-5-5-5-5-5-5-5-5-|--5--5--5--5--5--5--5--5--5--5--5--5-5-5-5-5-|
 |---------------------------------|---------------------------------------------|

 


 


 S S S S S S S S S S S S S S S S S S S S S S S S S S S S S S S S


 

 
 |---------------------------------------------|----------------------------------------------------|
 |---------------------------------------------|----------------------------------------------------|
 |-13-13-13-13-13-13-13-13-13-13-13-13s7-7-7-7s|=16-16-16-16-16-16-16-16-16-16-16-16-16-16-16-16----|
 |---------------------------------------------|----------------------------------------------------|
 |-11-11-11-11-11-11-11-11-11-11-11-11s5-5-5-5s|=14-14-14-14-14-14-14-14-14-14-14-14-14-14-14-14----|
 |---------------------------------------------|----------------------------------------------------|

 


 |


 | S S S S S S S S S S S S S S S S S S S S S S S S S S S S S S S S


 

 
 |---------------------------------------------|----------------------------------------------------|
 |---------------------------------------------|----------------------------------------------------|
 |--7--7--7--7--7--7--7--7--7--7--7--7-7-7-7-7-|--7--7--7--7--7--7--7--7--7--7--7--7--7--7--7--7----|
 |---------------------------------------------|----------------------------------------------------|
 |--5--5--5--5--5--5--5--5--5--5--5--5-5-5-5-5-|--5--5--5--5--5--5--5--5--5--5--5--5--5--5--5--5----|
 |---------------------------------------------|----------------------------------------------------|

 


 


 Gtr I


 

 
 PM--------| PM--------| PM--------| PM--------|

 


 E E E E E E Q E E E E E E Q E E E E E E Q E E E E E E Q


 

 
 ||------------------|-----------------|-----------------|-------------------||
 ||o-----------------|-----------------|-----------------|------------------o||
 ||--------------/8--|-------------/8--|-------------/8--|-------------/8----||
 ||------------------|-----------------|-----------------|-------------------||
 ||o-0-0-0-0-0-0-/6--|-0-0-0-0-0-0-/6--|-0-0-0-0-0-0-/6--|-0-0-0-0-0-0-/6---o||
 ||--0-0-0-0-0-0-----|-0-0-0-0-0-0-----|-0-0-0-0-0-0-----|-0-0-0-0-0-0-------||

 


 |


 | Gtr II


 

 
 | PM--------| PM--------| PM--------| PM--------|

 


 | E E E E E E Q E E E E E E Q E E E E E E Q E E E E E E Q


 

 
 ||------------------|-----------------|-----------------|-------------------||
 ||o-----------------|-----------------|-----------------|------------------o||
 ||--------------/5--|-------------/5--|-------------/5--|-------------/5----||
 ||------------------|-----------------|-----------------|-------------------||
 ||o-0-0-0-0-0-0-/3--|-0-0-0-0-0-0-/3--|-0-0-0-0-0-0-/3--|-0-0-0-0-0-0-/3---o||
 ||--0-0-0-0-0-0-----|-0-0-0-0-0-0-----|-0-0-0-0-0-0-----|-0-0-0-0-0-0-------||

 


 


 Q=205


 Gtrs I, II


 PM| PM| PM| PM PM PM PM| PM| PM|


 E E E E E E E E E E E E E E Q E E E E E E E E E E E E E E Q


 

 
 |-----------------|----------------|-----------------|----------------|
 |-----------------|----------------|-----------------|----------------|
 |-----------------|----------------|-----------------|----------------|
 |-----------------|----------------|-----------------|----------------|
 |-----5-----6-----|-5-------3------|-----5-----6-----|-6-8-6-5-6-5----|
 |-0-0---0-0---0-0-|---0-6-0---0-6--|-0-0---0-0---0-0-|-------------6--|

 


 


 Gtr I


 PM| PM| PM| PM PM PM PM| PM| PM|


 E E E E E E E E E E E E E E Q E E E E E E E E E H..


 

 
 |-----------------|----------------|-----------------|-----------|
 |-----------------|----------------|-----------------|-----------|
 |-----------------|----------------|-----------------|-----------|
 |-----------------|----------------|-----5-----6-----|-5-[5]-----|
 |-----5-----6-----|-5-------3------|-----------------|-----------|
 |-0-0---0-0---0-0-|---0-6-0---0-6--|-0-0---0-0---0-0-|-----------|

 


 |


 | Gtr II


 | PM| PM| PM| PM PM PM PM| PM| PM|


 | E E E E E E E E E E E E E E Q E E E E E E E E E H..


 

 
 |-----------------|----------------|-----------------|-----------|
 |-----------------|----------------|-----------------|-----------|
 |-----------------|----------------|-----------------|-----------|
 |-----------------|----------------|-----------------|-----------|
 |-----5-----6-----|-5-------3------|-----5-----6-----|-5-[5]-----|
 |-0-0---0-0---0-0-|---0-6-0---0-6--|-0-0---0-0---0-0-|-----------|

 


 


 Gtrs I, II


 PM| PM| PM| PM| PM| PM| PM|


 E E E E E E E E E E E E E E E E E E E E E E E E E E E E E E Q 4x


 

 
 ||------------------|-----------------|-----------------|------------------||
 ||o-----------------|-----------------|-----------------|-----------------o||
 ||------------------|-----------------|-----------------|------------------||
 ||------------------|-----------------|-----------------|------------------||
 ||o-----3s5-----3s5-|-----3s5-----3s5-|-----6s5-6s5-----|-6s5-6s5-----3---o||
 ||--0-0-3s5-0-0-3s5-|-0-0-3s5-0-0-3s5-|-0-0-6s5-6s5-0-0-|-6s5-6s5-0-0-3----||

 


 


 Gtrs I, II


 PM| PM| PM| PM| PM| PM|


 E E E E E E E E E E E E E E Q E E E E E E E E E E E E E E Q


 

 
 |-----------------|----------------|-----------------|----------------|
 |-----------------|----------------|-----------------|----------------|
 |-----------------|----------------|-----------------|----------------|
 |-----------------|----------------|-----------------|----------------|
 |-----6s5-6s5-----|-6s5-6s5-----3--|-----6s5-6s5-----|-6s5-6s5-----3--|
 |-0-0-6s5-6s5-0-0-|-6s5-6s5-0-0-3--|-0-0-6s5-6s5-0-0-|-6s5-6s5-0-0-3--|

 


 


 Gtrs I, II


 

 
 PM| PM| PM| PM| PM--------------|

 


 |-3-| |-3-|


 E E E E E E E E E E E E E E Q E E E E E E E E Q Q Q Q Q Q


 

 
 |-----------------|----------------|-----------------|-------------|
 |-----------------|----------------|-----------------|-------------|
 |-----------------|----------------|-----------------|-------------|
 |-----------------|----------------|-----------------|-------------|
 |-----6s5-6s5-----|-6s5-6s5-----3--|-----6s5-6s5-----|-6-5-3-5-3-1-|
 |-0-0-6s5-6s5-0-0-|-6s5-6s5-0-0-3--|-0-0-6s5-6s5-0-0-|-6-5-3-5-3-1-|

 


 


 Q=205


 Gtrs I, II


 PM| PM| PM| PM PM PM PM| PM| PM|


 E E E E E E E E E E E E E E Q E E E E E E E E E E H.


 

 
 |-----------------|----------------|-----------------|-----------*|
 |-----------------|----------------|-----------------|-----------*|
 |-----------------|----------------|-----------------|-----------*|
 |-----------------|----------------|-----------------|-7-7-------*|
 |-----5-----6-----|-5-------3------|-----5-----6-----|-5-5-------*|
 |-0-0---0-0---0-0-|---0-6-0---0-6--|-0-0---0-0---0-0-|-----------*|

 


 


 


 Duration Legend


 

 
 ---------------
 W - whole; H - half; Q - quarter; E - 8th; S - 16th; T - 32nd; X - 64th; a - acciaccatura

 


 + - note tied to previous; . - note dotted; .. - note double dotted


 Uncapitalized letters represent notes that are staccato (1/2 duration)


 Irregular groupings are notated above the duration line


 Duration letters will always appear directly above the note/fret number it represents the


 duration for. Duration letters with no fret number below them represent rests. Multi-


 bar rests are notated in the form Wxn, where n is the number of bars to rest for. Low


 melody durations appear below the staff


 


 Tablature Legend


 

 
 ----------------

 


 h - hammer-on


 p - pull-off


 b - bend


 pb - pre-bend


 r - bend release (if no number after the r, then release immediately)


 /\ - slide into or out of (from/to "nowhere")


 s - legato slide


 S - shift slide


 - natural harmonic


 [n] - artificial harmonic


 n(n) - tapped harmonic


 ~ - vibrato


 tr - trill


 T - tap


 TP - trem. picking


 PM - palm muting


 \n/ - tremolo bar dip; n = amount to dip


 \n - tremolo bar down


 n/ - tremolo bar up


 /n\ - tremolo bar inverted dip


 = - hold bend; also acts as connecting device for hammers/pulls


 - volume swell (louder/softer)


 x - on rhythm slash represents muted slash


 o - on rhythm slash represents single note slash


 


 Misc Legend


 

 
 -----------


Important: The song above is NOT stored on the Chordie server. The original song is hosted at www.guitaretab.com. Chordie works as a search engine and provides on-the-fly formatting. Chordie does not index songs against artists'/composers' will. To remove this song please click here.

This song is displayed as text-only. Transposing and tuning is only available for chordpro-songs.
Rate #1 of 2 versions

Login - add to songbook

SHARE PAGE  



You need to log in to post comments