Guitar Tabs, Chords and Lyrics
Server problems seems to be fixed. Chordie has been experiencing problems with songs disappearing. These issues now seems to be fixed, but still verifying the fix. If you find anything strange, please email admin@chordie.com.


Vade retro, Satana!  Mokoma

VADE RETRO, SATANA!
As recorded by Mokoma
Transcribed by zesar_1337
Gtr I (A D A D G B E) - 'Kuisma 7'
Gtr II (D A D G B E) - 'Tuomo'
Gtr III (D A D G B E) - 'Kuisma 6'
Q=180
[6/4] Gtr II
Q Q Q Q Q Q Q Q Q Q Q Q
 
 |-------------------|-------------------|
 |-------------------|-------------------|
 |-------------------|-------------------|
 |-------------------|-------------------|
 |-1--5--1--4--1--0--|-1--5--1--4--1--0--|
 |-1--5--1--4--1--0--|-1--5--1--4--1--0--|

[4/4] Gtr I
S S S S S S S S S S S S S S S S S S S S S S S S S S S S S S S S
 
 |---------------------------------|---------------------------------|
 |---------------------------------|---------------------------------|
 |---------------------------------|---------------------------------|
 |---------------------------------|---------------------------------|
 |---------------------------------|---------------------------------|
 |---------------------------------|-----------------3-3-3-3-3-3-3-3-|
 |-1-1-1-1-1-1-1-1-1-1-1-1-1-1-1-1-|-4-4-4-4-4-4-4-4-----------------|

|
| Gtr II
| S S S S S S S S S S S S S S S S S S S S S S S S S S S S S S S S
 
 |---------------------------------|---------------------------------|
 |---------------------------------|---------------------------------|
 |---------------------------------|---------------------------------|
 |---------------------------------|---------------------------------|
 |-1-1-1-1-1-1-1-1-1-1-1-1-1-1-1-1-|-4-4-4-4-4-4-4-4-----------------|
 |---------------------------------|-----------------3-3-3-3-3-3-3-3-|

PM| PM| PM| PM| PM| PM|
S S Q S S Q S S E +E S S Q S S Q S S
 
 |---------------------|------------------------|
 |---------------------|------------------------|
 |---------------------|------------------------|
 |---------------------|------------------------|
 |-----2------2------2-|-(2)-----2------2-------|
 |-2-2-2--2-2-2--2-2-2-|-(2)-2-2-2--2-2-2--2-2--|
 |---------------------|------------------------|

|
| PM| PM| PM| PM| PM| PM|
| S S Q S S Q S S E +E S S Q S S Q S S
 
 |---------------------|------------------------|
 |---------------------|------------------------|
 |---------------------|------------------------|
 |---------------------|------------------------|
 |-----2------2------2-|-(2)-----2------2-------|
 |-2-2-2--2-2-2--2-2-2-|-(2)-2-2-2--2-2-2--2-2--|

Gtr I
S S S S S S S S S S S S S S S S S S S S S S S S S S S S S S S S
 
 |---------------------------------|---------------------------------|
 |---------------------------------|---------------------------------|
 |---------------------------------|---------------------------------|
 |---------------------------------|---------------------------------|
 |---------------------------------|---------------------------------|
 |---------------------------------|-----------------3-3-3-3-3-3-3-3-|
 |-1-1-1-1-1-1-1-1-1-1-1-1-1-1-1-1-|-4-4-4-4-4-4-4-4-----------------|

|
| Gtr II
| S S S S S S S S S S S S S S S S S S S S S S S S S S S S S S S S
 
 |---------------------------------|---------------------------------|
 |---------------------------------|---------------------------------|
 |---------------------------------|---------------------------------|
 |---------------------------------|-----------------3-3-3-3-3-3-3-3-|
 |-1-1-1-1-1-1-1-1-1-1-1-1-1-1-1-1-|-4-4-4-4-4-4-4-4-----------------|
 |---------------------------------|---------------------------------|

|-3-| |-3-|
S S S S S S S S S S S S S S S S Q Q Q Q Q Q
 
 |---------------------------------|---------------|
 |---------------------------------|---------------|
 |---------------------------------|---------------|
 |---------------------------------|---------------|
 |---------------------------------|---------------|
 |-2-2-2-2-2-2-2-2-2-2-2-2-2-2-2-2-|-1-5-1-4-1-0---|
 |---------------------------------|---------------|

|
| |-3-| |-3-|
| S S S S S S S S S S S S S S S S Q Q Q Q Q Q
 
 |---------------------------------|---------------|
 |---------------------------------|---------------|
 |---------------------------------|---------------|
 |-2-2-2-2-2-2-2-2-2-2-2-2-2-2-2-2-|-1-5-1-4-1-0---|
 |---------------------------------|---------------|
 |---------------------------------|---------------|

Gtr I
S S S S S S S S S S S S S S S S S S S S S S S S S S S S S S S S
 
 |---------------------------------|---------------------------------|
 |---------------------------------|---------------------------------|
 |---------------------------------|---------------------------------|
 |---------------------------------|---------------------------------|
 |---------------------------------|---------------------------------|
 |---------------------------------|-----------------3-3-3-3-3-3-3-3-|
 |-1-1-1-1-1-1-1-1-1-1-1-1-1-1-1-1-|-4-4-4-4-4-4-4-4-----------------|

|
| Gtr II
| S S S S S S S S S S S S S S S S S S S S S S S S S S S S S S S S
 
 |---------------------------------|---------------------------------|
 |---------------------------------|---------------------------------|
 |---------------------------------|---------------------------------|
 |---------------------------------|---------------------------------|
 |-1-1-1-1-1-1-1-1-1-1-1-1-1-1-1-1-|-4-4-4-4-4-4-4-4-----------------|
 |---------------------------------|-----------------3-3-3-3-3-3-3-3-|

PM| PM| PM| PM| PM| PM|
S S Q S S Q S S E +E S S Q S S Q S S
 
 |---------------------|-------------------------|
 |---------------------|-------------------------|
 |---------------------|-------------------------|
 |---------------------|-------------------------|
 |-----2------2------2-|-(2)-----2------2--------|
 |-2-2-2--2-2-2--2-2-2-|-(2)-2-2-2--2-2-2--2-2---|
 |---------------------|-------------------------|

|
| PM| PM| PM| PM| PM| PM|
| S S Q S S Q S S E +E S S Q S S Q S S
 
 |---------------------|-------------------------|
 |---------------------|-------------------------|
 |---------------------|-------------------------|
 |---------------------|-------------------------|
 |-----2------2------2-|-(2)-----2------2--------|
 |-2-2-2--2-2-2--2-2-2-|-(2)-2-2-2--2-2-2--2-2---|

Gtr I
S S S S S S S S S S S S S S S S S S S S S S S S S S S S S S S S
 
 |---------------------------------|---------------------------------|
 |---------------------------------|---------------------------------|
 |---------------------------------|---------------------------------|
 |---------------------------------|---------------------------------|
 |---------------------------------|---------------------------------|
 |---------------------------------|-----------------3-3-3-3-3-3-3-3-|
 |-1-1-1-1-1-1-1-1-1-1-1-1-1-1-1-1-|-4-4-4-4-4-4-4-4-----------------|

|
| Gtr II
| S S S S S S S S S S S S S S S S S S S S S S S S S S S S S S S S
 
 |---------------------------------|---------------------------------|
 |---------------------------------|---------------------------------|
 |---------------------------------|---------------------------------|
 |---------------------------------|-----------------3-3-3-3-3-3-3-3-|
 |-1-1-1-1-1-1-1-1-1-1-1-1-1-1-1-1-|-4-4-4-4-4-4-4-4-----------------|
 |---------------------------------|---------------------------------|

S S S S S S S S S S S S S S S S [6/4] Q Q Q Q Q Q
 
 |---------------------------------|-------------------|
 |---------------------------------|-------------------|
 |---------------------------------|-------------------|
 |---------------------------------|-------------------|
 |---------------------------------|-1--5--1--4--1--0--|
 |-2-2-2-2-2-2-2-2-2-2-2-2-2-2-2-2-|-1--5--1--4--1--0--|
 |---------------------------------|-------------------|

|
| S S S S S S S S S S S S S S S S Q Q Q Q Q Q
 
 |---------------------------------|-------------------|
 |---------------------------------|-------------------|
 |---------------------------------|-------------------|
 |-2-2-2-2-2-2-2-2-2-2-2-2-2-2-2-2-|-------------------|
 |---------------------------------|-1--5--1--4--1--0--|
 |---------------------------------|-1--5--1--4--1--0--|

[4/4] Gtrs II, III
 
 PM--------------| PM PM PM PM------------| PM PM PM

[E] [E] [E] [E] [E] [E] [E] [E] [E] [E] [E] [E] [E] [E] [E] [E] [+E] [E] [E] [E] [E] [E] [E] [E] [E] [E] [E] [E] [E] [E] [E] [E]  
 
 |-----------------|-----------------|-------------------|------------------|
 |-----------------|-----------------|-------------------|------------------|
 |-----------------|-----------------|-------------------|------------------|
 |-----------------|---2-------------|-------------------|---2-----------0--|
 |-1-1-1-1-1-1-1-1-|-------1---2---4-|-(4)-2-1-1-1-1-1-1-|-------1---2---0--|
 |-1-1-1-1-1-1-1-1-|-1---1---1---1---|-------1-1-1-1-1-1-|-1---1---1---1----|

Q=165
Gtr III
 
 PM------------| PM PM PM PM--------|

|-3-| |-3-|
+E E E E E E E E E E E E E E E E +E E E E E E E E Q Q Q Q Q Q
 
 |-------------------|-----------------|-------------------|-------------|
 |-------------------|-----------------|-------------------|-------------|
 |-------------------|-----------------|-------------------|-------------|
 |-(0)-1-------------|---2-------------|-------------------|-------------|
 |-(0)-1-1-1-1-1-1-1-|-------1---2---4-|-(4)-2-1-1-1-1-1-1-|-1-5-1-4-0-6-|
 |-------1-1-1-1-1-1-|-1---1---1---1---|-------1-1-1-1-1-1-|-1-5-1-4-0-6-|

|
| Gtr II
 
 | PM------------| PM PM PM PM--------|

| |-3-| |-3-|
| +E E E E E E E E E E E E E E E E +E E E E E E E E Q Q Q Q Q Q
 
 |-------------------|-----------------|-------------------|-------------|
 |-------------------|-----------------|-------------------|-------------|
 |-------------------|-----------------|-------------------|-------------|
 |-(0)-1-------------|---2-------------|-------------------|-------------|
 |-(0)-1-1-1-1-1-1-1-|-------1---2---4-|-(4)-2-1-1-1-1-1-1-|-1-----4-----|
 |-------1-1-1-1-1-1-|-1---1---1---1---|-------1-1-1-1-1-1-|-1-----4-----|

Q=180
Gtrs II, III
 
 PM--------------| PM PM PM| PM------------| PM PM PM|

E E E E E E E E E E E E E E E E H E S S E S S E E E E E E E E
 
 |-----------------|-----------------|-------------------|-----------------|
 |-----------------|-----------------|-------------------|-----------------|
 |-----------------|-----------------|-------------------|-----------------|
 |-----------------|-----------3-----|-7\----------------|-----------3-----|
 |-0-0-0-0-0-0-0-0-|-0-3-0-4-0-1-0-0-|-5\----0-0-0-0-0-0-|-0-3-0-4-0-1-0-0-|
 |-0-0-0-0-0-0-0-0-|-0-3-0-4-0---0-0-|-------0-0-0-0-0-0-|-0-3-0-4-0---0-0-|

Gtrs II, III
 
 PM--------------| PM PM PM| PM------------| PM PM PM|

E E E E E E E E E E E E E E E E H E S S E S S E E E E E E E E 3x
 
 ||------------------|-----------------|-------------------|-------------------||
 ||o-----------------|-----------------|-------------------|------------------o||
 ||------------------|-----------------|-------------------|-------------------||
 ||--7---------------|-----------3-----|-7\----------------|-----------3-------||
 ||o-5-0-0-0-0-0-0-0-|-0-3-0-4-0-1-0-0-|-5\----0-0-0-0-0-0-|-0-3-0-4-0-1-0-0--o||
 ||----0-0-0-0-0-0-0-|-0-3-0-4-0---0-0-|-------0-0-0-0-0-0-|-0-3-0-4-0---0-0---||

Gtrs II, III
 
 PM--| PM| PM--| PM| PM--| PM| PM| PM|

[E] [E] [E] [E] [E] [E] [E] [E] [E] [E] [E] [E] [E] [E] [E] [E] [E] [E] [E] [E] [E] [E] [E] [E] [E] [E] [E] [E] [E] [E] [E] [E]  
 
 |-----------------|-----------------|-----------------|------------------|
 |-----------------|-----------------|-----------------|------------------|
 |-----------------|-----------------|-----------------|------------------|
 |-7-------5s7-----|-8-------5s8-----|-7-------5s7-----|-7s8-----8s10-----|
 |-5-0-0-0-3s5-0-0-|-6-0-0-0-3s6-0-0-|-5-0-0-0-3s5-0-0-|-5s6-0-0-6s=8-0-0-|
 |---0-0-0-----0-0-|---0-0-0-----0-0-|---0-0-0-----0-0-|-----0-0------0-0-|

Gtrs II, III
 
 PM--| PM| PM--| PM| PM--| PM|

E E E E E E E E E E E E E E E E E E E E E E E E Q Q Q Q
 
 |-----------------|-----------------|-----------------|-------------|
 |-----------------|-----------------|-----------------|-------------|
 |-----------------|-----------------|-----------------|-------------|
 |-7-------5s7-----|-8-------5s8-----|-7-------5s7-----|-------------|
 |-5-0-0-0-3s5-0-0-|-6-0-0-0-3s6-0-0-|-5-0-0-0-3s5-0-0-|-1--5--1--4--|
 |---0-0-0-----0-0-|---0-0-0-----0-0-|---0-0-0-----0-0-|-1--5--1--4--|

Gtr I
S S S S S S S S S S S S S S S S S S S S S S S S S S S S S S S S
 
 |---------------------------------|---------------------------------|
 |---------------------------------|---------------------------------|
 |---------------------------------|---------------------------------|
 |---------------------------------|---------------------------------|
 |---------------------------------|---------------------------------|
 |---------------------------------|-----------------3-3-3-3-3-3-3-3-|
 |-1-1-1-1-1-1-1-1-1-1-1-1-1-1-1-1-|-4-4-4-4-4-4-4-4-----------------|

|
| Gtr II
| S S S S S S S S S S S S S S S S S S S S S S S S S S S S S S S S
 
 |---------------------------------|---------------------------------|
 |---------------------------------|---------------------------------|
 |---------------------------------|---------------------------------|
 |---------------------------------|---------------------------------|
 |-1-1-1-1-1-1-1-1-1-1-1-1-1-1-1-1-|-4-4-4-4-4-4-4-4-----------------|
 |---------------------------------|-----------------3-3-3-3-3-3-3-3-|

PM| PM| PM| PM| PM| PM|
S S Q S S Q S S E +E S S Q S S Q S S
 
 |---------------------|-------------------------|
 |---------------------|-------------------------|
 |---------------------|-------------------------|
 |---------------------|-------------------------|
 |-----2------2------2-|-(2)-----2------2--------|
 |-2-2-2--2-2-2--2-2-2-|-(2)-2-2-2--2-2-2--2-2---|
 |---------------------|-------------------------|

|
| PM| PM| PM| PM| PM| PM|
| S S Q S S Q S S E +E S S Q S S Q S S
 
 |---------------------|-------------------------|
 |---------------------|-------------------------|
 |---------------------|-------------------------|
 |---------------------|-------------------------|
 |-----2------2------2-|-(2)-----2------2--------|
 |-2-2-2--2-2-2--2-2-2-|-(2)-2-2-2--2-2-2--2-2---|

Gtr I
S S S S S S S S S S S S S S S S S S S S S S S S S S S S S S S S
 
 |---------------------------------|---------------------------------|
 |---------------------------------|---------------------------------|
 |---------------------------------|---------------------------------|
 |---------------------------------|---------------------------------|
 |---------------------------------|---------------------------------|
 |---------------------------------|-----------------3-3-3-3-3-3-3-3-|
 |-1-1-1-1-1-1-1-1-1-1-1-1-1-1-1-1-|-4-4-4-4-4-4-4-4-----------------|

|
| Gtr II
| S S S S S S S S S S S S S S S S S S S S S S S S S S S S S S S S
 
 |---------------------------------|---------------------------------|
 |---------------------------------|---------------------------------|
 |---------------------------------|---------------------------------|
 |---------------------------------|-----------------3-3-3-3-3-3-3-3-|
 |-1-1-1-1-1-1-1-1-1-1-1-1-1-1-1-1-|-4-4-4-4-4-4-4-4-----------------|
 |---------------------------------|---------------------------------|

|-3-| |-3-|
S S S S S S S S S S S S S S S S Q Q Q Q Q Q
 
 |---------------------------------|---------------|
 |---------------------------------|---------------|
 |---------------------------------|---------------|
 |---------------------------------|---------------|
 |---------------------------------|---------------|
 |-2-2-2-2-2-2-2-2-2-2-2-2-2-2-2-2-|-1-5-1-4-1-0---|
 |---------------------------------|---------------|

|
| |-3-| |-3-|
| S S S S S S S S S S S S S S S S Q Q Q Q Q Q
 
 |---------------------------------|---------------|
 |---------------------------------|---------------|
 |---------------------------------|---------------|
 |-2-2-2-2-2-2-2-2-2-2-2-2-2-2-2-2-|-1-5-1-4-1-0---|
 |---------------------------------|---------------|
 |---------------------------------|---------------|

Gtr I
S S S S S S S S S S S S S S S S S S S S S S S S S S S S S S S S
 
 |---------------------------------|---------------------------------|
 |---------------------------------|---------------------------------|
 |---------------------------------|---------------------------------|
 |---------------------------------|---------------------------------|
 |---------------------------------|---------------------------------|
 |---------------------------------|-----------------3-3-3-3-3-3-3-3-|
 |-1-1-1-1-1-1-1-1-1-1-1-1-1-1-1-1-|-4-4-4-4-4-4-4-4-----------------|

|
| Gtr II
| S S S S S S S S S S S S S S S S S S S S S S S S S S S S S S S S
 
 |---------------------------------|---------------------------------|
 |---------------------------------|---------------------------------|
 |---------------------------------|---------------------------------|
 |---------------------------------|---------------------------------|
 |-1-1-1-1-1-1-1-1-1-1-1-1-1-1-1-1-|-4-4-4-4-4-4-4-4-----------------|
 |---------------------------------|-----------------3-3-3-3-3-3-3-3-|

PM| PM| PM| PM| PM| PM|
S S Q S S Q S S E +E S S Q S S Q S S
 
 |---------------------|-------------------------|
 |---------------------|-------------------------|
 |---------------------|-------------------------|
 |---------------------|-------------------------|
 |-----2------2------2-|-(2)-----2------2--------|
 |-2-2-2--2-2-2--2-2-2-|-(2)-2-2-2--2-2-2--2-2---|
 |---------------------|-------------------------|

|
| PM| PM| PM| PM| PM| PM|
| S S Q S S Q S S E +E S S Q S S Q S S
 
 |---------------------|-------------------------|
 |---------------------|-------------------------|
 |---------------------|-------------------------|
 |---------------------|-------------------------|
 |-----2------2------2-|-(2)-----2------2--------|
 |-2-2-2--2-2-2--2-2-2-|-(2)-2-2-2--2-2-2--2-2---|

Gtr I
S S S S S S S S S S S S S S S S S S S S S S S S S S S S S S S S
 
 |---------------------------------|---------------------------------|
 |---------------------------------|---------------------------------|
 |---------------------------------|---------------------------------|
 |---------------------------------|---------------------------------|
 |---------------------------------|---------------------------------|
 |---------------------------------|-----------------3-3-3-3-3-3-3-3-|
 |-1-1-1-1-1-1-1-1-1-1-1-1-1-1-1-1-|-4-4-4-4-4-4-4-4-----------------|

|
| Gtr II
| S S S S S S S S S S S S S S S S S S S S S S S S S S S S S S S S
 
 |---------------------------------|---------------------------------|
 |---------------------------------|---------------------------------|
 |---------------------------------|---------------------------------|
 |---------------------------------|-----------------3-3-3-3-3-3-3-3-|
 |-1-1-1-1-1-1-1-1-1-1-1-1-1-1-1-1-|-4-4-4-4-4-4-4-4-----------------|
 |---------------------------------|---------------------------------|

S S S S S S S S S S S S S S S S [6/4] Q Q Q Q Q Q
 
 |---------------------------------|-------------------|
 |---------------------------------|-------------------|
 |---------------------------------|-------------------|
 |---------------------------------|-------------------|
 |---------------------------------|-1--5--1--4--1--0--|
 |-2-2-2-2-2-2-2-2-2-2-2-2-2-2-2-2-|-1--5--1--4--1--0--|
 |---------------------------------|-------------------|

|
| S S S S S S S S S S S S S S S S Q Q Q Q Q Q
 
 |---------------------------------|-------------------|
 |---------------------------------|-------------------|
 |---------------------------------|-------------------|
 |-2-2-2-2-2-2-2-2-2-2-2-2-2-2-2-2-|-------------------|
 |---------------------------------|-1--5--1--4--1--0--|
 |---------------------------------|-1--5--1--4--1--0--|

[4/4] Gtrs II, III
 
 PM--------------| PM PM PM PM------------| PM PM PM

[E] [E] [E] [E] [E] [E] [E] [E] [E] [E] [E] [E] [E] [E] [E] [E] [+E] [E] [E] [E] [E] [E] [E] [E] [E] [E] [E] [E] [E] [E] [E] [E]  
 
 |-----------------|-----------------|-------------------|------------------|
 |-----------------|-----------------|-------------------|------------------|
 |-----------------|-----------------|-------------------|------------------|
 |-----------------|---2-------------|-------------------|---2-----------0--|
 |-1-1-1-1-1-1-1-1-|-------1---2---4-|-(4)-2-1-1-1-1-1-1-|-------1---2---0--|
 |-1-1-1-1-1-1-1-1-|-1---1---1---1---|-------1-1-1-1-1-1-|-1---1---1---1----|

Q=165
Gtr III
 
 PM------------| PM PM PM PM--------|

|-3-| |-3-|
+E E E E E E E E E E E E E E E E +E E E E E E E E Q Q Q Q Q Q
 
 |-------------------|-----------------|-------------------|-------------|
 |-------------------|-----------------|-------------------|-------------|
 |-------------------|-----------------|-------------------|-------------|
 |-(0)-1-------------|---2-------------|-------------------|-------------|
 |-(0)-1-1-1-1-1-1-1-|-------1---2---4-|-(4)-2-1-1-1-1-1-1-|-1-5-1-4-0-6-|
 |-------1-1-1-1-1-1-|-1---1---1---1---|-------1-1-1-1-1-1-|-1-5-1-4-0-6-|

|
| Gtr II
 
 | PM------------| PM PM PM PM--------|

| |-3-| |-3-|
| +E E E E E E E E E E E E E E E E +E E E E E E E E Q Q Q Q Q Q
 
 |-------------------|-----------------|-------------------|-------------|
 |-------------------|-----------------|-------------------|-------------|
 |-------------------|-----------------|-------------------|-------------|
 |-(0)-1-------------|---2-------------|-------------------|-------------|
 |-(0)-1-1-1-1-1-1-1-|-------1---2---4-|-(4)-2-1-1-1-1-1-1-|-1-----4-----|
 |-------1-1-1-1-1-1-|-1---1---1---1---|-------1-1-1-1-1-1-|-1-----4-----|

Q=180
Gtrs II, III
 
 PM--------------| PM PM PM| PM------------| PM PM PM|

E E E E E E E E E E E E E E E E H E S S E S S E E E E E E E E
 
 |-----------------|-----------------|-------------------|-----------------|
 |-----------------|-----------------|-------------------|-----------------|
 |-----------------|-----------------|-------------------|-----------------|
 |-----------------|-----------3-----|-7\----------------|-----------3-----|
 |-0-0-0-0-0-0-0-0-|-0-3-0-4-0-1-0-0-|-5\----0-0-0-0-0-0-|-0-3-0-4-0-1-0-0-|
 |-0-0-0-0-0-0-0-0-|-0-3-0-4-0---0-0-|-------0-0-0-0-0-0-|-0-3-0-4-0---0-0-|

Gtrs II, III
 
 PM--------------| PM PM PM| PM------------| PM PM PM|

E E E E E E E E E E E E E E E E H E S S E S S E E E E E E E E 3x
 
 ||------------------|-----------------|-------------------|-------------------||
 ||o-----------------|-----------------|-------------------|------------------o||
 ||------------------|-----------------|-------------------|-------------------||
 ||--7---------------|-----------3-----|-7\----------------|-----------3-------||
 ||o-5-0-0-0-0-0-0-0-|-0-3-0-4-0-1-0-0-|-5\----0-0-0-0-0-0-|-0-3-0-4-0-1-0-0--o||
 ||----0-0-0-0-0-0-0-|-0-3-0-4-0---0-0-|-------0-0-0-0-0-0-|-0-3-0-4-0---0-0---||

Gtrs II, III
 
 PM--| PM| PM--| PM| PM--| PM| PM| PM|

[E] [E] [E] [E] [E] [E] [E] [E] [E] [E] [E] [E] [E] [E] [E] [E] [E] [E] [E] [E] [E] [E] [E] [E] [E] [E] [E] [E] [E] [E] [E] [E]  
 
 ||------------------|-----------------|-----------------|--------------------||
 ||o-----------------|-----------------|-----------------|-------------------o||
 ||------------------|-----------------|-----------------|--------------------||
 ||--7-------5s7-----|-8-------5s8-----|-7-------5s7-----|-7s8-----8s10-------||
 ||o-5-0-0-0-3s5-0-0-|-6-0-0-0-3s6-0-0-|-5-0-0-0-3s5-0-0-|-5s6-0-0-6s=8-0-0--o||
 ||----0-0-0-----0-0-|---0-0-0-----0-0-|---0-0-0-----0-0-|-----0-0------0-0---||

Gtrs II, III
 
 PM----| PM----| PM----| PM----|

Q S S S S E E S S S S Q S S S S E E S S S S
 
 |------------------------|------------------------|
 |------------------------|------------------------|
 |------------------------|------------------------|
 |-7----------5s7---------|-8----------5s8---------|
 |-5----------3s5---------|-6----------3s6---------|
 |----0-0-0-0-----0-0-0-0-|----0-0-0-0-----0-0-0-0-|
 PM----| PM----| PM----| PM----|

Q S S S S E E S S S S E E S S S S E E S S S S
 
 |------------------------|-----------------------------|
 |------------------------|-----------------------------|
 |------------------------|-----------------------------|
 |-7----------5s7---------|-7s8---------8s10------------|
 |-5----------3s5---------|-5s6---------6s=8------------|
 |----0-0-0-0-----0-0-0-0-|-----0-0-0-0------0-0-0-0----|

Gtrs II, III
 
 PM----| PM----| PM----| PM----| PM----| PM----|

Q S S S S E E S S S S Q S S S S E E S S S S Q S S S S E E S S S S
 
 |------------------------|------------------------|-------------------------|
 |------------------------|------------------------|-------------------------|
 |------------------------|------------------------|-------------------------|
 |-7----------5s7---------|-8----------5s8---------|-7----------5s7----------|
 |-5----------3s5---------|-6----------3s6---------|-5----------3s5----------|
 |----0-0-0-0-----0-0-0-0-|----0-0-0-0-----0-0-0-0-|----0-0-0-0-----0-0-0-0--|

[6/4] Gtrs II, III
Q Q Q Q Q Q Q Q Q Q Q Q Q Q Q Q Q Q
 
 |-------------------|-------------------|-------------------|
 |-------------------|-------------------|-------------------|
 |-------------------|-------------------|-------------------|
 |-------------------|-------------------|-------------------|
 |-1--5--1--4--1--0--|-1--5--1--4--1--0--|-1--5--1--4--0--6--|
 |-1--5--1--4--1--0--|-1--5--1--4--1--0--|-1--5--1--4--0--6--|

Gtrs II, III
Q W Q
 
 |------------------*|
 |------------------*|
 |------------------*|
 |------------------*|
 |-0----------------*|
 |-0----------------*|

Duration Legend
 
 ---------------
 W - whole; H - half; Q - quarter; E - 8th; S - 16th; T - 32nd; X - 64th; a - acciaccatura

+ - note tied to previous; . - note dotted; .. - note double dotted
Uncapitalized letters represent notes that are staccato (1/2 duration)
Irregular groupings are notated above the duration line
Duration letters will always appear directly above the note/fret number it represents the
duration for. Duration letters with no fret number below them represent rests. Multi-
bar rests are notated in the form Wxn, where n is the number of bars to rest for. Low
melody durations appear below the staff
Tablature Legend
 
 ----------------

h - hammer-on
p - pull-off
b - bend
pb - pre-bend
r - bend release (if no number after the r, then release immediately)
/\ - slide into or out of (from/to "nowhere")
s - legato slide
S - shift slide
- natural harmonic
(n) - artificial harmonic
n(n) - tapped harmonic
~ - vibrato
tr - trill
T - tap
TP - trem. picking
PM - palm muting
\n/ - tremolo bar dip; n = amount to dip
\n - tremolo bar down
n/ - tremolo bar up
/n\ - tremolo bar inverted dip
= - hold bend; also acts as connecting device for hammers/pulls
- volume swell (louder/softer)
x - on rhythm slash represents muted slash
o - on rhythm slash represents single note slash
Misc Legend
 
 -----------

| - bar
|| - double bar
||o - repeat start
o|| - repeat end
*| - double bar (ending)
: - bar (freetime)
$ - Segno
& - Coda
Tempo markers - = BPM(8/16=s8/s16), where s8 = swing 8ths, s16 = swing 16ths

Important: The song above is NOT stored on the Chordie server. The original song is hosted at www.guitaretab.com. Chordie works as a search engine and provides on-the-fly formatting. Chordie does not index songs against artists'/composers' will. To remove this song please click here.

Text color:
Chord color:
Chord grids: 
Font size:    
Page size: 

E
Rate #1 of 2 versions

Login - add to songbook

SHARE PAGE  



You need to log in to post comments