Guitar Tabs, Chords and Lyrics
Login is temporarily disabled for some users. Do not panic. Will be back in an hour or two. DO NOT REREGISTER!!


Valapatto   Mokoma

 
 |---------------|-----------------------|
 |---------------|-----------------------|
 |---------------|-----------------------|
 |---------------|-----------------------|
 |-------2-------|-------2---3---2-------|
 |-0-1p0-0-------|-0-1p0-0-0-1-1-0-------|

 


 . . . .


 


 riff1a


 


 riff1b:


 


 GTRs I, II


 

 
 |---------------------|-----------------------|
 |---------------------|-----------------------|
 |---------------------|-----------------------|
 |---------------------|-----------------------|
 |-------------2-------|-------2---3---2-------|
 |-0-1p0-0-1p0-0-------|-0-1p0-0-0-1-1-0-------|

 


 . . . . .


 


 riff1ab x 2


 


 riff1a


 


 PRE-CHORUS:


 


 riff2a:


 


 GTRs I, II


 

 
 |-----------------|-----------------|-----------------|-----------------|
 |-----------------|-----------------|-----------------|-----------------|
 |-7-7---7-7---7-7-|---7-7---7-8---8-|-5-5---5-5---4-4-|---4-4---3-2-----|
 |-7-7---7-7---7-7-|---7-7---7-8---8-|-5-5---5-5---4-4-|---4-4---3-2-----|
 |-7-7---7-7---7-7-|---7-7---7-8---8-|-5-5---5-5---4-4-|---4-4---3-2-5---|
 |-----------------|-----------------|-----------------|-------------3---|

 


 x x x x x x x x x


 


 riff2a


 


 CHORUS:


 


 riff3a:


 


 GTR III


 

 
 |-----------------|-----------------|-----------------|-----------------|

 


 |-1111111111111111|-1111111111111111|-1111111111111111|-1111111111111111|


 

 
 |-x-x-x-x-x-x-x-x-|-x-x-x-x-x-x-x-x-|-x-x-x-x-x-x-x-x-|-x-x-x-x-x-x-x-x-|
 |-9-9-9-9-9-9-9-9-|-9-9-9-9-9-9-9-9-|-9-9-9-9-9-9-9-9-|-9-9-9-9-9-9-9-9-|
 |-----------------|-----------------|-----------------|-----------------|
 |-----------------|-----------------|-----------------|-----------------|

 


 | |


 | |


 | GTRs I, II |


 

 
 |-----------------|-----------------|-----------------|-----------------|
 |-----------------|-----------------|-----------------|-----------------|
 |-2-2-2-2-2-2-2-2-|-----------------|-0-0-0-0-0-0-0-0-|-4-4-4-4-4-4-4-4-|
 |-2-2-2-2-2-2-2-2-|-----------------|-0-0-0-0-0-0-0-0-|-4-4-4-4-4-4-4-4-|
 |-2-2-2-2-2-2-2-2-|-4-4-4-4-4-4-4-4-|-0-0-0-0-0-0-0-0-|-4-4-4-4-4-4-4-4-|
 |-----------------|-2-2-2-2-2-2-2-2-|-----------------|-----------------|

 


 ...................................................


 


 riff3b:


 


 GTR III


 

 
 |-----------------|-----------------|-----------------|-----------------|
 |-9-9-9-9-9-9-9-9-|-9-9-9-9-9-9-9-9-|-9-9-9-9-9-9-9-9-|-9-9-9-9-9-9-9-9-|
 |-x-x-x-x-x-x-x-x-|-x-x-x-x-x-x-x-x-|-x-x-x-x-x-x-x-x-|-x-x-x-x-x-x-x-x-|
 |-7-7-7-7-7-7-7-7-|-7-7-7-7-7-7-7-7-|-7-7-7-7-7-7-7-7-|-7-7-7-7-7-7-7-7-|
 |-----------------|-----------------|-----------------|-----------------|
 |-----------------|-----------------|-----------------|-----------------|

 


 | |


 | |


 | GTRs I, II |


 

 
 |-----------------|-----------------|-----------------|-----------------|
 |-----------------|-----------------|-----------------|-----------------|
 |-----------------|-----------------|-2-2-----2-2-----|-----------------|
 |-----------------|-----------------|-2-2-----2-2-----|-----------------|
 |-2-2-----2-2-----|-5-5-----5-5-----|-2-2-----2-2-----|-3-3-----3-3-----|
 |-0-0-----0-0-----|-3-3-----3-3-----|-----------------|-1-1-----1-1-----|

 


 


 riff3ab


 


 VERSE 2:


 


 riff1a x 2


 


 riff1ba x 3


 


 PRE-CHORUS 2:


 


 riff2a x 2


 


 CHORUS 2:


 


 riff3ab x 2


 


 INTERLUDE:


 


 riff4a:


 


 GTRs I, II


 

 
 |-----------------|-----------------|-----------------|-----------------|
 |-----------------|-----------------|-----------------|-----------------|
 |-----------------|-----------------|--[häröilyä]-----|-----------------|
 |-----------------|-----------------|--[harmonics]----|-\\[scratches]---|
 |-2---------------|-(2)-------------|--[etc...]-------|-\\---[pickslide]|
 |-0---------------|-(0)-------------|-----------------|-\\--------------|

 


 


 riff4b:


 


 GTR II


 

 
 |-----------------|--------------------|
 |-----------------|--------------------|
 |-----------------|--------------------|
 |-----------------|--------------------|
 |-4--(4)----------|--------------------|
 |-2--(2)----------|--------------------|

 


 | x |


 | |


 | GTR I |


 

 
 |-----------------|--------------------|
 |-----------------|--------------------|
 |-----------------|--------------------|
 |-----------------|--------------------|
 |-----------------|--------------------|
 |-5\3---1---0-----|-5\3---1---0--1--0--|

 


 x


 


 riff4c:


 


 GTR I


 

 
 |-----------------|-----------------------|
 |-----------------|-----------------------|
 |-----------------|-----------------------|
 |-----------------|-----------------------|
 |-----------------|-----------------------|
 |-5\3---1---0-----|-5\3---1---0--1--0--1--|

 


 x


 


 riff5a:


 


 GTR II


 

 
 |-----------------|--------------------|
 |-----------------|--------------------|
 |-----------------|--------------------|
 |-----------------|--------------------|
 |-----------------|--------------------|
 |-5\3---1---0-----|-5\3---1---0--1--0--|

 


 | x |


 | |


 | GTR I |


 

 
 |-----------------|--------------------|
 |-----------------|--------------------|
 |-----------------|--------------------|
 |-----------------|--------------------|
 |-----------------|--------------------|
 |-1/3---1---0-----|-1/3---1---0--1--0--|

 


 x


 


 riff5b:


 


 GTR II


 

 
 |-----------------|-----------------------|
 |-----------------|-----------------------|
 |-----------------|-----------------------|
 |-----------------|-----------------------|
 |-----------------|-----------------------|
 |-5\3---1---0-----|-5\3---1---0--1--0--1--|

 


 | x |


 | |


 | GTR I |


 

 
 |-----------------|-----------------------|
 |-----------------|-----------------------|
 |-----------------|-----------------------|
 |-----------------|-----------------------|
 |-----------------|-----------------------|
 |-1/3---1---0-----|-1/3---1---0--1--0--1--|

 


 x


 


 riff5ab


 


 riff6a:


 


 GTRs I, II


 

 
 |---------------|------------------|
 |---------------|------------------|
 |---------------|------------------|
 |---------------|------------------|
 |-5---3---2-----|-5---3---2--3--2--|
 |-3---1---0-----|-3---1---0--1--0--|

 


 x


 


 riff6b:


 


 GTRs I, II


 

 
 |---------------|---------------------|
 |---------------|---------------------|
 |---------------|---------------------|
 |---------------|---------------------|
 |-5---3---2-----|-5---3---2--3--2--3--|
 |-3---1---0-----|-3---1---0--1--0--1--|

 


 x


 


 riff6ab


 


 riff1a x 2


 


 PRE-CHORUS 3:


 


 riff2a x 2


 


 FINAL CHORUS:


 


 riff3ab x 2


 


 riff3b


 


 OUTRO:


 


 riff1a


 


 riff1c:


 


 GTRs I, II


 

 
 |---------------|-----------------------|
 |---------------|-----------------------|
 |---------------|-----------------------|
 |---------------|-----------------------|
 |-------2-------|-------2---3---2-------|
 |-0-1p0-0-------|-0-1p0-0-0-1-1-0-------|


Important: The song above is NOT stored on the Chordie server. The original song is hosted at www.guitaretab.com. Chordie works as a search engine and provides on-the-fly formatting. Chordie does not index songs against artists'/composers' will. To remove this song please click here.

This song is displayed as text-only. Transposing and tuning is only available for chordpro-songs.
Rate #1 of 2 versions

Jango Player

Login - add to songbook

SHARE PAGE  




You need to log in to post comments