Guitar Tabs, Chords and Lyrics
Server problems seems to be fixed. Chordie has been experiencing problems with songs disappearing. These issues now seems to be fixed, but still verifying the fix. If you find anything strange, please email admin@chordie.com.


Zodiac Lung  Monster Magnet

Monster Magnet - Zodiac Lung
 
 Tuned 1/2 Step Down - Eb-Ab-Db-Gb-Bb-Eb

Based on a tab by Juan Carlos Rial, updated & adjusted by Zom-B.
Chords referenced for positions only! (A minor will sound like A-flat minor)
When strumming to chords, you can hammer on the Dsus4 on the first string.
 
 eb|--0---0---0---0---2---2-2h3-2--------------|
 Bb|----1---1-------1---3---------3------------|
 Gb|-------------------------------------------|
 Db|-------------------------------------------|
 Ab|-------------------------------------------|
 Eb|-------------------------------------------| x1
 eb|--0---0---0---0---2---2-2h3-2--------------|
 Bb|----1---1---1---1---3---------3------------|
 Gb|-------------------------------------------|
 Db|-------------------------------------------|
 Ab|-------------------------------------------|
 Eb|-------------------------------------------| x3

The [Am]shape of the Zodiac Lung[D] [(Dsus4)]
Is [Am]beckoning like a bad[D] C[(Dsus4)]hrist
It [Am]hovers above your head[D] [(Dsus4)]
It's [Am]pulling the wool over my[D] l[(Dsus4)]ife
If [C]you don't hear a [G]word I'm [Am]saying
 
 eb|--0---0---0---0---2---2-2h3-2--------------|
 Bb|----1---1---1---1---3---------3------------|
 Gb|-------------------------------------------|
 Db|-------------------------------------------|
 Ab|-------------------------------------------|
 Eb|-------------------------------------------| x2

You can't [Am]cover it with your hair[D] [(Dsus4)]
You can't [Am]hide it in your army[D] c[(Dsus4)]oat
You've got the [Am]Milltown demon stare[D] [(Dsus4)]
You [Am]forgot all the letters [D]th[(Dsus4)]at you wrote
[C]You can't hear a [G]word I'm saying[Am]
No, [C]you can't hear a [G]thing at all[Am]
[Am]When I die,[C] it'll [G]be 'cause of [Am]you
[Am]There I'll lie,[C] and it'll [G]all point at [Am]you
It's [C]fuck-ups like you that [G]always seem to [D]take it all[Am]
It's [C]fuck-ups like you that [G]never seem to [D]go away
 
 eb|--0---0---0---0---2---2-2h3-2--------------|
 Bb|----1---1---1---1---3---------3------------|
 Gb|-------------------------------------------|
 Db|-------------------------------------------|
 Ab|-------------------------------------------|
 Eb|-------------------------------------------| x2

The [Am]shape of the Zodiac Lung[D] [(Dsus4)]
Is like the [Am]shape of the back of my hand[D] [(Dsus4)]
And I'll [Am]knock you across this room[D] [(Dsus4)]
And I'll [Am]bury my head in the sand[D] [(Dsus4)]
[C]You won't feel my [G]love tap baby[Am]
No, [C]you won't feel a [G]thing at all[Am]
[Am]When I die,[C] it'll [G]be 'cause of [Am]you
[Am]There I'll lie,[C] and it'll [G]all point at [Am]you
It's [C]fuck-ups like you that [G]always seem to [D]get it all[Am]
It's [C]fuck-ups like you that [G]never seem to [D]die
[Am]I d[D]on't know why
 
 eb|--0---0---0---0---2---2-2h3-2--------------|
 Bb|----1---1---1---1---3---------3------------|
 Gb|-------------------------------------------|
 Db|-------------------------------------------|
 Ab|-------------------------------------------|
 Eb|-------------------------------------------| x7

Am (ring out to finish)

Important: The song above is NOT stored on the Chordie server. The original song is hosted at www.guitaretab.com. Chordie works as a search engine and provides on-the-fly formatting. Chordie does not index songs against artists'/composers' will. To remove this song please click here.

Text color:
Chord color:
Chord grids: 
Font size:    
Page size: 

Am C D G
Rate #1 of 2 versions

Jango Player

Login - add to songbook

SHARE PAGE  



You need to log in to post comments