Guitar Tabs, Chords and Lyrics
Major upgrade!! After one year development the new version of Chordie is now online! Please give feedback.


New Horizons  The Moody Blues

Intro:
[F]/ / / / 4x
[F]Well, I've had dreams enough for one. [F]And I've got love enough for [Bb]three.
[Bb]I have my [F]hopes to comfort me. [F]I've got my new horizons out to [Bb]sea.
Chorus
[C]But I'm [Dm]never gonna [Am7]lose [Gm7]your precious gift.
[C]It will [Dm]always [Am7]be that [Gm7]way.
[Bb]Cos [C]I know [Dm]I'm gonna [Am7]find [Gm7]my peace of mind. [F]Someday [C]-ay-[Bb]ay-[F]ay.
[F]Where is this place that w[Bb]e have found?
[F]Nobody knows where we are [Bb]bound.
[Bb]I long to [F]hear, I need to see. [F]Cos I've shed tears, too many for [Bb]me.
Chorus
[C]But I'm [Dm]never gonna l[Am7]ose y[Gm7]our precious gift.
[C]It will [Dm]always [Am7]be that [Gm7]way.
[Bb]Cos [C]I know [Dm]I'm gonna [Am7]find, [Gm7]my peace of mind
[F]Someday -[C]ay-a-a-[Bb]ay[F]
a-a-ay,
a-a-ay.
[Am]On the [Bb]wind, [Am]soaring [Bb]free, [Am]spread your [Bb]wings,I'm [F]begin-[C]ing [Bb]to [Am]see.[Am7]
[Am]Out of [Bb]mind, [Am]far from [Bb]view, [Am]beyond the [Bb]reach of the [F]nightm[C]are [Bb]come [C7]true.
Guitar solo
(true)
 
 E--------12--13---12--13-15>(17)>15-15-12-13-15-13-12-13-12-13-------|
 B-13-15--------------------------------------------------------------|
 G--------------------------------------------------------------------|
 D--------------------------------------------------------------------|
 A--------------------------------------------------------------------|
 E--------------------------------------------------------------------|
 E-13-15>(17)15-15-17>(18)(18)>17-15>(17)>15-15-13-12-13---15-13-12---|
 B--------------------------------------------------------------------|
 G--------------------------------------------------------------------|
 D--------------------------------------------------------------------|
 A--------------------------------------------------------------------|
 E--------------------------------------------------------------------|

[F]  
 
 E---------------------------------|
 B-15-13-------8----6--------------|
 G-------14--------------7-5-------|
 D----------------------------3----|
 A---------------------------------|
 E---------------------------------|

[F]Well, I've had dreams enough for one. [F]And I've got love enough for [Bb]three.
[Bb]I have my [F]hopes to comfort me. [F]I've got my new horizons out to [Bb]sea
[C]But I'm [Dm]never [Am7]gonna lose [Gm7]your precisous gift. [C]It will [Dm]always [Am7]be that [Gm7]way.
[Bb]Cos [C]I [Dm]know I'm gonna [Am7]find, my [Gm7]own peace of mind.
[F] [C] [Bb] [F]  
 
 Some-day-ay,some-way-ay-ay-ay.

End guitar solo
 
 E-13-15>(17)>15-15-12--13--15-13-12-13-12-13------13-15>(17)>15-15--|
 B-13----------------------------------------------------------------|
 G-------------------------------------------------------------------|
 D-------------------------------------------------------------------|
 A-------------------------------------------------------------------|
 E-------------------------------------------------------------------|
 E-17>(18)(18)>17-15>(17)>15-15-12-13---15-13-12---------------------|
 B----------------------------------------------15-13----------8-----|
 G-------------------------------------------------------14----------|
 D-------------------------------------------------------------------|
 A-------------------------------------------------------------------|
 E-------------------------------------------------------------------|

[D] 
[/]  
 
 E-------------------------------------------------------------------|
 B-3---------------3---------------3---------------3-----------------|
 G-----5-5-3---3-5-----5-5-3---3-5-----5---3---3-5-------5-----------|
 D------------------------------------------------------------5------|
 A-------------------------------------------------------------------|
 E-------------------------------------------------------------------|

>( )> = bend to note in ( ) and release
/ under chord = number of times to play chord
E,B,G,D,A,E, = guitar strings.

Important: The song above is NOT stored on the Chordie server. The original song is hosted at www.guitaretab.com. Chordie works as a search engine and provides on-the-fly formatting. Chordie does not index songs against artists'/composers' will. To remove this song please click here.

Text color:
Chord color:
Chord grids: 
Font size:    
Page size: 

Am Am7 Bb C C7 D Dm F Gm7
Rate #1 of 9 versions

Jango Player

Login - add to songbook

SHARE PAGE  



You need to log in to post comments