Guitar Tabs, Chords and Lyrics
Server problems seems to be fixed. Chordie has been experiencing problems with songs disappearing. These issues now seems to be fixed, but still verifying the fix. If you find anything strange, please email admin@chordie.com.


Violence  Mott the Hoople

Riff:
[A5] [B5] [D5] [D] [C]  
 
 e|--------------------------------10-10-10-10-8--|
 B|--------------------------------10-10-10-10-8--|
 G|--------------------------------13-13-13-13-9--|
 D|--------------------------------12-12-12-12-10-|
 A|-7-7-9-7--9-9-11-9--12-12-14-12-12-12-12-12-10-|
 E|-5-5-5-5--7-7-7--7--10-10-10-10-10-10-10-10-8--|

Intro:
Riff x2
[A5]I'm a missing link, po[B5]olroom stink, I c[D5]an't talk
(W[D]ell that's too b[C]ad)
W[A5]hat's going on, somet[B5]hing's wrong, I ca[D5]n't work
[D] [C]  
[A5]Can't go to school, the tea[B5]cher's a fool, the pr[D5]eacher's a jerk
(W[D]ell that's such a d[C]rag)
[A5]Got nothing to do, stree[B5]t-corner blues, and no[D5]where to walk
[D] [C]  
[A]Violence, v[A]iolence
[C]It's the only thing that'll ma[D]ke you see sense x2
[A] [A] [C] [D]  
 
 e|-10p9-----10p9-----8p7-----15p14------|
 B|-----10-------10------8---------15----|
 G|-------9b-------9b------7b---------14b|
 D|--------------------------------------|
 A|--------------------------------------|
 E|--------------------------------------|

Gotta fight, nothing's right, livin' nowhere
(That's so sad)
Watch out for the gun, snake on the run, hide in my hair
You keep your mouth shut, or you'll get cut. Haha - I like to scare (Bet you're so mad)
I'm a battery louse, a superstar mouse, I don't care
Get off my back or I'll attack, 'n I don't owe you nothin' (OK)
Head for your hole, you're sick and you're old
'N I'm here to tell you something
Violence, violence
It's the only thing that'll make you see sense
 
 -----------------------------------------------

That's it.

Important: The song above is NOT stored on the Chordie server. The original song is hosted at www.guitaretab.com. Chordie works as a search engine and provides on-the-fly formatting. Chordie does not index songs against artists'/composers' will. To remove this song please click here.

Text color:
Chord color:
Chord grids: 
Font size:    
Page size: 

A A5 B5 C D D5
Rate #2 of 3 versions

Jango Player

Login - add to songbook

SHARE PAGE  




You need to log in to post comments