Guitar Tabs, Chords and Lyrics
Major upgrade!! After one year development the new version of Chordie is now online! Please give feedback.


Mississippi Queen  Mountain

 
 --------------------------------------------------------------

MOUNTAIN - MISSISSIPPI QUEEN (West, Laing, Pappalardi & Rea)
From CLIMBING album. Released on March 1970.
 
 --------------------------------------------------------------

Tabbed by:PJVillanueva
Mississippi Queen, If you know what I mean
Mississippi Queen, She taught me everything
Way down around Vicksburg, Around Louisiana way
Lived a cajun lady, Aboard the Mississippi Queen
You know she was a dancer
She moved better on wine
While the rest of them dudes were'a gettin' their kicks,
Boy I beg your pardon, I was getting mine
Mississippi Queen, If you know what I mean
Mississippi Queen, She taught me everything
This lady she asked me, If I would be her man
You know that I told her, I'd do what I can
To keep her looking pretty
Buy her dresses that shine
While the rest of them dudes were making their bread
Boy I beg your pardon, I was losing mine
x x x x x x x x
 
 e|------- ------- ------- -------|------- ------- ------- -------|
 B|-------------------------------|-------------------------------|
 G|-------------------------------|-------------------------------|
 D|-------------------------------|----------------------------5--|
 A|-------------------------------|-------------------------------|
 E|-------------------------------|--------------------5---7------|

x x x x x x x x
 
 e|------- ------- ------- -------|------- ------- ------- -------|
 B|-------------------------------|-------------------------------|
 G|-------------------------------|-------------------------------|
 D|-------------------------------|----------------------------5--|
 A|78787-\------------------------|-------------------------------|
 E|-------------------------------|--------------------5---7------|

BRBR
x x x x x x xx X xx X
 
 e|------- ------- ------- -------|------- ------- ------- -------|
 B|-------------------------------|----------------------------19B|
 G|-------------------------------|-------------------------------|
 D|-------------------------------|-------------------------------|
 A|78787-\------------------------|-------------------------------|
 E|-------------------------------|-------------------------------|

BRBR
[A5] [B5]  
 
 e|------- ------- ------- -------|------- ------- ------- -------|
 B|-------------------------------|-------------------------------|
 G|-------------------------------|-------------------------------|
 D|7-/-9---9---9---9--------------|--------9-------7-B-8---9---0--|
 A|7-/-9---9---9---9--------------|----9--------------------------|
 E|5-/-7---7---7---7--------------|----7-------7------------------|

[B]  
 
 e|----19- ------- ------- -------|------- ------- ------- -------|
 B|21------192019--17-------------|------------17--19------17-----|
 G|------------------------18--16-|----16--18---------------------|
 D|-------------------------------|-------------------------------|
 A|-------------------------------|-------------------------------|
 E|-------------------------------|-------------------------------|

[G5] [A5]  
 
 e|------- ------- ------- -------|------- ------- ------- -------|
 B|-------------------------------|-------------------------------|
 G|-------------------------------|-------------------------------|
 D|5-/-7---7---7---7-\------------|--------7-------5--B--6--------|
 A|5-/-7---7---7---7-\------------|----0-------0------------------|
 E|3-/-5---5---5---5-\------------|-------------------------------|
 e|------- ------- ------- -------|----19- ------- ------- -------|
 B|--------17--19--17------17--19-B21-----R20-R19--17----------17-|
 G|16--18-------------------------|------------------------18-----|
 D|-------------------------------|-------------------------------|
 A|-------------------------------|-------------------------------|
 E|-------------------------------|-------------------------------|

[D5] [E5]  
 
 e|------- ------- ------- -------|------- ------- ------- -------|
 B|-------------------------------|-------------------------------|
 G|7-/-9---9---9---9-\------------|-------------------------------|
 D|7-/-9---9---9---9-\------------|-------------------------------|
 A|5-/-7---7---7---7-\------------|--------7-------5B7R5---7------|
 E|0-------0---0---0--------------|----0-------0------------------|

Mississippi Queen,
 
 e|------- ------- ------- -------|------- ------- ------- -------|
 B|17~-\--------------------------|-------------------------------|
 G|-------------------------------|-------------------------------|
 D|-------------------------------|-------------------------------|
 A|-------------------------------|-------------------------------|
 E|-------------------------------|-------------------------------|
 e|------- ------- ------- -------|------- ------- ------- -------|
 B|-------------------------------|-------------------------------|
 G|7-/-9---9---9---9-\------------|-------------------------------|
 D|7-/-9---9---9---9-\------------|----------------2--------------|
 A|5-/-7---7---7---7-\------------|-------------------------------|
 E|0-------0---0---0--------------|----0---3B4-0------------------|

If you know what I mean
 
 e|------- ------- ------- -------|------- ------- ------- -------|
 B|-------------------------------|-------------------------------|
 G|7-/-9---9---9---9-\------------|-------------------------------|
 D|7-/-9---9---9---9-\------------|-------------------------------|
 A|5-/-7---7---7---7-\------------|--------7-------57575---7------|
 E|0-------0---0---0--------------|----0-------0------------------|

Mississippi Queen,
 
 e|------- ------- ------- -------|------- ------- ------- -------|
 B|-------------------------------|-------------------------------|
 G|7-/-9---9---9---9-\------------|-------------------------------|
 D|7-/-9---9---9---9-\------------|----------------2--------------|
 A|5-/-7---7---7---7-\------------|-------------------------------|
 E|0-------0---0---0--------------|----0---3B4-0---------------0--|

She taught me everything
[G5] [A5]  
 
 e|------- ------- ------- -------|------- ------- ------- -------|
 B|-------------------------------|-------------------------------|
 G|-------------------------------|-------------------------------|
 D|5-/-7---7---7---7-\------------|--------7-------5-B-6---7------|
 A|5-/-7---7---7---7-\------------|----0-------0------------------|
 E|3-/-5---5---5---5-\------------|-------------------------------|

Way down around Vicksburg,
 
 e|------- ------- ------- -------|------- ------- ------- -------|
 B|-------------------------------|-------------------------------|
 G|-------------------------------|----------------2--------------|
 D|5-/-7---7---7---7-\------------|-------------------------------|
 A|5-/-7---7---7---7-\------------|----0---3B4-0------------------|
 E|3-/-5---5---5---5-\------------|----------------------------0--|

Around Louisiana way
[D5] [E5]  
 
 e|------- ------- ------- -------|------- ------- ------- -------|
 B|-------------------------------|-------------------------------|
 G|7-/-9---9---9---9-\------------|-------------------------------|
 D|7-/-9---9---9---9-\------------|-------------------------------|
 A|5-/-7---7---7---7-\------------|--------7-------5-B-6---7------|
 E|0-------0---0---0--------------|----0-------0------------------|

Lived a cajun lady,
 
 e|------- ------- ------- -------|------- ------- ------- -------|
 B|-------------------------------|-------------------------------|
 G|7-/-9---9---9---9-\------------|-------------------------------|
 D|7-/-9---9---9---9-\------------|----------------2--------------|
 A|5-/-7---7---7---7-\------------|-------------------------------|
 E|0-------0---0---0--------------|----0---3B4-0---------------0--|

Aboard the Mississippi Queen
[A5] [B5]  
 
 e|------- ------- ------- -------|------- ------- ------- -------|
 B|-------------------------------|-------------------------------|
 G|-------------------------------|-------------------------------|
 D|7-/-9---9---9---9-\------------|--------9-------7-B-8---9---0--|
 A|7-/-9---9---9---9-\------------|----9--------------------------|
 E|5-/-7---7---7---7-\------------|----7-------7------------------|

You know she was a dancer
[G5] [A5]  
 
 e|------- ------- ------- -------|------- ------- ------- -------|
 B|-------------------------------|-------------------------------|
 G|-------------------------------|-------------------------------|
 D|5-/-7---7---7---7-\------------|--------7-------5--B--6--------|
 A|5-/-7---7---7---7-\------------|----0-------0------------------|
 E|3-/-5---5---5---5-\------------|-------------------------------|

She moved better on wine While the
[E5]  
 
 e|------- ------- ------- -------|------- ------- ------- -------|
 B|-------------------------------|-------------------------------|
 G|9-\----------------------------|-------------------------------|
 D|9-\----------------------------|----------------------------5--|
 A|7-\----------------------------|-------------------------------|
 E|0------------------------------|--------------------5---7------|

rest of them dudes were'a gettin' their kicks,
 
 e|------- ------- ------- -------|-4--4--4--4---- ------- -------|
 B|-------------------------------|-------------------------------|
 G|-------------------------------|4--4--4--4---------------------|
 D|-------------------------------|-------------------------------|
 A|-------------------------------|-------------------------------|
 E|-------------------------------|-------------------------------|

x x x x x x
 
 e|------- ------- ------- -------|------- ------- ------- -------|
 B|-------------------------------|-------------------------------|
 G|-------------------------------|-------------------------------|
 D|-------------------------------|-------------------------------|
 A|78787-\------------------------|-------------------------------|
 E|-------------------------------|-------------------------------|

Boy I beg your pardon, I was getting mine
 
 e|------- ------- ------- -------|-4--4--4--4---- ------- -------|
 B|-------------------------------|-------------------------------|
 G|-------------------------------|4--4--4--4---------------------|
 D|-------------------------------|-------------------------------|
 A|-------------------------------|-------------------------------|
 E|-------------------------------|-------------------------------|

[D5] [E5]  
 
 e|------- ------- ------- -------|------- ------- ------- -------|
 B|-------------------------------|-------------------------------|
 G|7-/-9---9---9---9-\------------|-------------------------------|
 D|7-/-9---9---9---9-\------------|-------------------------------|
 A|5-/-7---7---7---7-\------------|--------7-------5757----7------|
 E|0-------0---0---0--------------|----0-------0------------------|

Mississippi Queen,
 
 e|------- ------- ------- -------|------- ------- ------- -------|
 B|--------12---------------------|-------------------------------|
 G|11-B13------13-R11--9----------|----------------------------11B|
 D|-------------------------------|-------------------------------|
 A|-------------------------------|-------------------------------|
 E|-------------------------------|-------------------------------|
 e|------- ------- ------- -------|------- ------- ------- -------|
 B|-------------------------------|-------------------------------|
 G|7-/-9---9---9---9-\------------|-------------------------------|
 D|7-/-9---9---9---9-\------------|----------------2--------------|
 A|5-/-7---7---7---7-\------------|-------------------------------|
 E|0-------0---0---0--------------|----0---3B4-0---------------0--|

If you know what I mean
 
 e|------- ------- ------- -------|------- ------- ------- -------|
 B|--------12---------------------|-------------------------------|
 G|13----------13-R11--9----------|----------------------------11B|
 D|-------------------------------|-------------------------------|
 A|-------------------------------|-------------------------------|
 E|-------------------------------|-------------------------------|
 e|------- ------- ------- -------|------- ------- ------- -------|
 B|-------------------------------|-------------------------------|
 G|7-/-9---9---9---9-\------------|-------------------------------|
 D|7-/-9---9---9---9-\------------|-------------------------------|
 A|5-/-7---7---7---7-\------------|--------7-------5757----7------|
 E|0-------0---0---0--------------|----0-------0------------------|

Mississippi Queen,
 
 e|------- ------- ------- -------|------- ------- ------- -------|
 B|-------------------------------|-------------------------------|
 G|13----R-12-B13-R11--9----------|----------------------------11B|
 D|-------------------------------|-------------------------------|
 A|-------------------------------|-------------------------------|
 E|-------------------------------|-------------------------------|
 e|------- ------- ------- -------|------- ------- ------- -------|
 B|-------------------------------|-------------------------------|
 G|7-/-9---9---9---9-\------------|-------------------------------|
 D|7-/-9---9---9---9-\------------|----------------2--------------|
 A|5-/-7---7---7---7-\------------|-------------------------------|
 E|0-------0---0---0--------------|----0---3B4-0---------------0--|

She taught me everything
 
 e|------- ------- ------- -------|------- ------- ------- -------|
 B|----12-------------------------|--------------------10B12------|
 G|13------13-R11--9-\------------|-------------------------------|
 D|-------------------------------|-------------------------------|
 A|-------------------------------|-------------------------------|
 E|-------------------------------|-------------------------------|

[G5] [A5]  
 
 e|------- ------- ------- -------|------- ------- ------- -------|
 B|-------------------------------|-------------------------------|
 G|-------------------------------|-------------------------------|
 D|5-/-7---7---7---7-\------------|--------7-------5-B-6---7------|
 A|5-/-7---7---7---7-\------------|----0-------0------------------|
 E|3-/-5---5---5---5-\------------|-------------------------------|

This lady she asked me,
 
 e|------- ------- ------- -------|------- ------- ----10- -------|
 B|10-B12-~-----------------------|------------------------12-R10-|
 G|-------------------------------|-------------------------------|
 D|-------------------------------|-------------------------------|
 A|-------------------------------|-------------------------------|
 E|-------------------------------|-------------------------------|
 e|------- ------- ------- -------|------- ------- ------- -------|
 B|-------------------------------|-------------------------------|
 G|-------------------------------|----------------2-~------------|
 D|5-/-7---7---7---7-\------------|-------------------------------|
 A|5-/-7---7---7---7-\------------|----0---3B4-0------------------|
 E|3-/-5---5---5---5-\------------|-------------------------------|

If I would be her man
 
 e|------- ------- ------- -------|------- ------- ------- -------|
 B|8------------------------------|-------------------------------|
 G|------------9------------------|-------------------------------|
 D|-------------------------------|-------------------------------|
 A|-------------------------------|-------------------------------|
 E|-------------------------------|-------------------------------|

[D5] [E5]  
 
 e|------- ------- ------- -------|------- ------- ------- -------|
 B|-------------------------------|-------------------------------|
 G|7-/-9---9---9---9-\------------|-------------------------------|
 D|7-/-9---9---9---9-\------------|-------------------------------|
 A|5-/-7---7---7---7-\------------|--------7-------5--B--6-7------|
 E|0-------0---0---0--------------|----0-------0------------------|

You know that I told her,
 
 e|------- ------- ------- -------|------- ------- ------- -----15B|
 B|15-B17--15-B17-~--R15P12-------|-------------------------------|
 G|-------------------------------|-------------------------------|
 D|-------------------------------|-------------------------------|
 A|-------------------------------|-------------------------------|
 E|-------------------------------|-------------------------------|
 e|------- ------- ------- -------|------- ------- ------- -------|
 B|-------------------------------|-------------------------------|
 G|7-/-9---9---9---9-\------------|-------------------------------|
 D|7-/-9---9---9---9-\------------|----------------2--------------|
 A|5-/-7---7---7---7-\------------|-------------------------------|
 E|0-------0---0---0--------------|----0---3B4-0---------------0--|

I'd do what I can
 
 e|17--15- 12----- ------- -------|------- ------- ------- -------|
 B|------------15-~-\-------------|-------------------15B17-R15-12|
 G|-------------------------------|-------------------------------|
 D|-------------------------------|-------------------------------|
 A|-------------------------------|-------------------------------|
 E|-------------------------------|-------------------------------|

[A5] [B5]  
 
 e|------- ------- ------- -------|------- ------- ------- -------|
 B|-------------------------------|-------------------------------|
 G|-------------------------------|-------------------------------|
 D|7-/-9---9---9---9-\------------|--------9-------7-B-8---9---0--|
 A|7-/-9---9---9---9-\------------|----9--------------------------|
 E|5-/-7---7---7---7-\------------|----7-------7------------------|

To keep her looking pretty
 
 e|------- ------- ------- -------|------- ------- ------- -------|
 B|-------------------------------|------------15-----------------|
 G|14-B16--14-B16-----------------|----------------14-B-16----14--|
 D|-------------------------------|-------------------------------|
 A|-------------------------------|-------------------------------|
 E|-------------------------------|-------------------------------|

[G5] [A5]  
 
 e|------- ------- ------- -------|------- ------- ------- -------|
 B|-------------------------------|-------------------------------|
 G|-------------------------------|-------------------------------|
 D|5-/-7---7---7---7-\------------|--------7-------5--B--6--------|
 A|5-/-7---7---7---7-\------------|----0-------0------------------|
 E|3-/-5---5---5---5-\------------|-------------------------------|

Buy her dresses that shine
 
 e|------- ------- ------- -------|------- ------- ------- -------|
 B|-------------------------------|-------------------------------|
 G|12-~---------------------------|-------------------------------|
 D|-------------------------------|-------------------------------|
 A|-------------------------------|-------------------------------|
 E|-------------------------------|-------------------------------|

x x x x x x
[E]  
 
 e|------- ------- ------- -------|------- ------- ------- -------|
 B|-------------------------------|-------------------------------|
 G|1------------------------------|-------------------------------|
 D|2------------------------------|----------------------------5--|
 A|2------------------------------|-------------------------------|
 E|0------------------------------|--------------------5---7------|

rest of them dudes were making their bread
 
 e|------- ------- ------- -------|-4--4--4--4---- ------- -------|
 B|-------------------------------|-------------------------------|
 G|-------------------------------|4--4--4--4---------------------|
 D|-------------------------------|-------------------------------|
 A|-------------------------------|-------------------------------|
 E|-------------------------------|-------------------------------|

x x x x x x
 
 e|------- ------- ------- -------|------- ------- ------- -------|
 B|-------------------------------|-------------------------------|
 G|-------------------------------|-------------------------------|
 D|-------------------------------|-------------------------------|
 A|7--\---------------------------|-------------------------------|
 E|-------------------------------|-------------------------------|

Boy I beg your pardon, I was losing mine
 
 e|------- ------- ------- -------|-4--4--4--4---- ------- -------|
 B|-------------------------------|-------------------------------|
 G|-------------------------------|4--4--4--4---------------------|
 D|-------------------------------|-------------------------------|
 A|-------------------------------|-------------------------------|
 E|-------------------------------|-------------------------------|

[D5] [E5]  
 
 e|------- ------- ------- -------|------- ------- ------- -------|
 B|-------------------------------|-------------------------------|
 G|7-/-9---9---9---9-\------------|-------------------------------|
 D|7-/-9---9---9---9-\------------|-------------------------------|
 A|5-/-7---7---7---7-\------------|--------7-------5-B-6---7------|
 E|0-------0---0---0--------------|----0-------0------------------|
 e|------- ------- ------- -------|----19- ------- ------- -------|
 B|----------------------------19-B21------21-R19--17-------------|
 G|-------------------------------|--------------------18-~ ------|
 D|-------------------------------|-------------------------------|
 A|-------------------------------|-------------------------------|
 E|-------------------------------|-------------------------------|
 e|------- ------- ------- -------|------- ------- ------- -------|
 B|-------------------------------|-------------------------------|
 G|7-/-9---9---9---9-\------------|-------------------------------|
 D|7-/-9---9---9---9-\------------|----------------2--------------|
 A|5-/-7---7---7---7-\------------|-------------------------------|
 E|0-------0---0---0--------------|----0---3B4-0---------------0--|
 e|------- ------- ------- -------|----19- ------- ------- -------|
 B|----------------------------19-B21------21-R19--17-~-----------|
 G|-------------------------------|-------------------------------|
 D|-------------------------------|-------------------------------|
 A|-------------------------------|-------------------------------|
 E|-------------------------------|-------------------------------|
 e|------- ------- ------- -------|------- ------- ------- -------|
 B|-------------------------------|-------------------------------|
 G|7-/-9---9---9---9-\------------|-------------------------------|
 D|7-/-9---9---9---9-\------------|-------------------------------|
 A|5-/-7---7---7---7-\------------|--------7-------5-B-6---7------|
 E|0-------0---0---0--------------|----0-------0------------------|
 e|------- ------- ------- -------|------- ------- ------- -------|
 B|--------------------10-B12-----|10--8---10-B12--8-~------------|
 G|-------------------------------|-------------------------------|
 D|-------------------------------|-------------------------------|
 A|-------------------------------|-------------------------------|
 E|-------------------------------|-------------------------------|
 e|------- ------- ------- -------|------- ------- ------- -------|
 B|-------------------------------|-------------------------------|
 G|7-/-9---9---9---9-\------------|-------------------------------|
 D|7-/-9---9---9---9-\------------|----------------2--------------|
 A|5-/-7---7---7---7-\------------|-------------------------------|
 E|0-------0---0---0--------------|----0---3B4-0---------------0--|
 e|------- ------- ------- -------|------- ------- ------- -------|
 B|--------------------12---B--14-|--------12--9------------------|
 G|-------------------------------|----------------11--9-\--------|
 D|-------------------------------|-------------------------------|
 A|-------------------------------|-------------------------------|
 E|-------------------------------|-------------------------------|

[G5] [A5]  
 
 e|------- ------- ------- -------|------- ------- ------- -------|
 B|-------------------------------|-------------------------------|
 G|-------------------------------|-------------------------------|
 D|5-/-7---7---7---7-\------------|--------7-------5--B-6--7------|
 A|5-/-7---7---7---7-\------------|----0-------0------------------|
 E|3-/-5---5---5---5-\------------|-------------------------------|
 e|------- ------- ------- ----12-|------- ------- ------- -------|
 B|--------------------10-B12-----|10-B12--10--8---10-------------|
 G|-------------------------------|--------------------9-~-\-------|
 D|-------------------------------|-------------------------------|
 A|-------------------------------|-------------------------------|
 E|-------------------------------|-------------------------------|
 e|------- ------- ------- -------|------- ------- ------- -------|
 B|-------------------------------|-------------------------------|
 G|-------------------------------|----------------2--------------|
 D|5-/-7---7---7---7-\------------|-------------------------------|
 A|5-/-7---7---7---7-\------------|----0---3B4-0------------------|
 E|3-/-5---5---5---5-\------------|----------------------------0--|
 e|------- ------- ------- -------|------- ------- ------- -------|
 B|--------------------15-B17-----|15--12-------------------------|
 G|-------------------------------|--------14--12-~----14---------|
 D|-------------------------------|-------------------------------|
 A|-------------------------------|-------------------------------|
 E|-------------------------------|-------------------------------|

[D5] [E5]  
 
 e|------- ------- ------- -------|------- ------- ------- -------|
 B|-------------------------------|-------------------------------|
 G|7-/-9---9---9---9-\------------|-------------------------------|
 D|7-/-9---9---9---9-\------------|-------------------------------|
 A|5-/-7---7---7---7-\------------|--------7-------5-B-6---7------|
 E|0-------0---0---0--------------|----0-------0------------------|
 e|----15B16---15B16------ ----12-|15P12-~ 12-\--- ------- -------|
 B|--------------------12--15-----|-------------------------------|
 G|-------------------------------|-------------------------------|
 D|-------------------------------|-------------------------------|
 A|-------------------------------|-------------------------------|
 E|-------------------------------|-------------------------------|
 e|------- ------- ------- -------|------- ------- ------- -------|
 B|-------------------------------|-------------------------------|
 G|7-/-9---9---9---9-\------------|-------------------------------|
 D|7-/-9---9---9---9-\------------|----------------2--------------|
 A|5-/-7---7---7---7-\------------|-------------------------------|
 E|0-------0---0---0--------------|----0---3B4-0---------------0--|
 e|------- ------- ----19B21------R20-B21-R20-B21-R20-B21-R20--20B|
 B|-------------------------------|-------------------------------|
 G|-------------------------------|-------------------------------|
 D|-------------------------------|-------------------------------|
 A|-------------------------------|-------------------------------|
 E|-------------------------------|-------------------------------|

[A5] [B5]  
 
 e|------- ------- ------- -------|------- ------- ------- -------|
 B|-------------------------------|-------------------------------|
 G|-------------------------------|-------------------------------|
 D|7-/-9---9---9---9-\------------|--------9-------7-B-8---9---0--|
 A|7-/-9---9---9---9-\------------|----9--------------------------|
 E|5-/-7---7---7---7-\------------|----7-------7------------------|

You know she was a dancer
 
 e|21-----R20-B21- ~------ -------|------- ----19-B21--19- 15-B16-|
 B|-------------------------------|-------------------------------|
 G|-------------------------------|-------------------------------|
 D|-------------------------------|-------------------------------|
 A|-------------------------------|-------------------------------|
 E|-------------------------------|-------------------------------|

x
[G5] [A5]  
 
 e|------- ------- ------- -------|------- ------- ------- -------|
 B|-------------------------------|-------------------------------|
 G|-------------------------------|-------------------------------|
 D|5-/-7---7---7---7-\------------|--------7-------5--B--6--------|
 A|5-/-7---7---7---7-\------------|----0-------0------------------|
 E|3-/-5---5---5---5-\------------|-------------------------------|

She moved better on wine While the
 
 e|----12- 15-B-16 12-~-\- -------|------- ------- ------- -------|
 B|15-----------------------------|-------------------------------|
 G|-------------------------------|-------------------------------|
 D|-------------------------------|-------------------------------|
 A|-------------------------------|-------------------------------|
 E|-------------------------------|-------------------------------|

x x x x x x
[E]  
 
 e|------- ------- ------- -------|------- ------- ------- -------|
 B|-------------------------------|-------------------------------|
 G|1-\----------------------------|-------------------------------|
 D|2-\----------------------------|----------------------------5--|
 A|2-\----------------------------|-------------------------------|
 E|0------------------------------|--------------------5---7------|

rest of them dudes were'a gettin' their kicks,
 
 e|------- ------- ------- -------|-4--4--4--4---- ------- -------|
 B|-------------------------------|-------------------------------|
 G|-------------------------------|4--4--4--4---------------------|
 D|-------------------------------|-------------------------------|
 A|-------------------------------|-------------------------------|
 E|-------------------------------|-------------------------------|

x x x x x x
 
 e|------- ------- ------- -------|------- ------- ------- -------|
 B|-------------------------------|-------------------------------|
 G|-------------------------------|-------------------------------|
 D|-------------------------------|----------------------------5--|
 A|78787-\------------------------|-------------------------------|
 E|-------------------------------|--------------------5---7------|

Boy I beg your pardon, I was getting mine
 
 e|------- ------- ------- -------|-4--4--4--4---- ------- -------|
 B|-------------------------------|-------------------------------|
 G|-------------------------------|4--4--4--4---------------------|
 D|-------------------------------|-------------------------------|
 A|-------------------------------|-------------------------------|
 E|-------------------------------|-------------------------------|

x x x x x x x x
 
 e|------- ------- ------- -------|------- ------- ------- -------|
 B|-------------------------------|-------------------------------|
 G|-------------------------------|-------------------------------|
 D|-------------------------------|----------------------------5--|
 A|78787-\------------------------|-------------------------------|
 E|-------------------------------|--------------------5---7------|

Oooooohhh Mississippi Queen
 
 e|------- ------- ------- -------|-4--4--4--4---- ------- -------|
 B|-------------------------------|-------------------------------|
 G|-------------------------------|4--4--4--4---------------------|
 D|-------------------------------|-------------------------------|
 A|-------------------------------|-------------------------------|
 E|-------------------------------|-------------------------------|

x x x x x x x x
 
 e|------- ------- ------- -------|------- ------- ------- -------|
 B|-------------------------------|-------------------------------|
 G|-------------------------------|-------------------------------|
 D|-------------------------------|----------------------------5--|
 A|78787-\------------------------|-------------------------------|
 E|-------------------------------|--------------------5---7------|
 e|------- ------- ------- -------|-4--4--4--4---- 3---2-- -------|
 B|-------------------------------|-------------------------------|
 G|-------------------------------|4--4--4--4------3---2----------|
 D|-------------------------------|-------------------------------|
 A|-------------------------------|-------------------------------|
 E|-------------------------------|-------------------------------|

x
 
 e|------- ------- ------- -------|------- ------- ------- -------|
 B|-------------------------------|-------------------------------|
 G|-------------------------------|-------------------------------|
 D|-------------------------------|-------------------------------|
 A|7-\----------------------------|-------------------------------|
 E|0------------------------------|-------------------------------|
 e|0------ ------- ------- -------|------- ------- ------- -------|
 B|0------------------------------|-------------------------------|
 G|1------------------------------|-------------------------------|
 D|2------------------------------|-------------------------------|
 A|-------------------------------|-------------------------------|
 E|-------------------------------|-------------------------------|

B Bend
R Release
/ Slide up
\ Slide down
H Hammer-on
P Pull-off
~ Vibrato
+ Harmonic
x Mute note
. Play note like a dot in standard notation
^ Ties two notes together
(. Pause

Important: The song above is NOT stored on the Chordie server. The original song is hosted at www.guitaretab.com. Chordie works as a search engine and provides on-the-fly formatting. Chordie does not index songs against artists'/composers' will. To remove this song please click here.

Text color:
Chord color:
Chord grids: 
Font size:    
Page size: 

A5 B B5 D5 E E5 G5
Rate #1 of 4 versions

Login - add to songbook

SHARE PAGE  




You need to log in to post comments